Song name
# A B C D E F G H I J K L M N O P Q R S T U V W X Y Z

Pontiak - The North Coast tab

PONTIAK (http://brotherspontiak.com/)
"NORTH COAST"
Off their album "Echo Ono"

Intro
E|-----3~~--------2~~-----------------------------|
B|------------------------------------------------|
G|---2---------2------------2--2~~------2--2~~----|
D|------------------------------------------------|
A|-0---------0-----------0-----------0------------|
E|-----------------------3-----------3------------|
Repeat 1X

Verse
E|-3~~----2~~----0~~----0~~-----------------------|
B|------------------------------------------------|
G|-2~~----2~~----2~~----2~~-----------------------|
D|-0~~----0~~----0~~----0~~-----------------------|
A|-0~~----0~~----0~~----0~~-----------------------|
E|------------------------------------------------|
Repeat 1X

Chorus
*Power Chords*
C-D-C (x4)
G-A-G (x4)
C-D-C (x4)

Repeat Verse 2X

Chorus

Breakdown
*Power Chords*
G-A-D-A
G-A-C-A
G-A-D-A
G-A-C-A
Repeat 1X

Repeat Chorus

Repeat Breakdown

For the last riff just play power chords down from C:
C-B-A-A#-G#-G-F#-F

You get the idea.
Questions or comments e-mail briansyates@gmail.com
Tap to rate this tab
 
# A B C D E F G H I J K L M N O P Q R S T U V W X Y Z