Song name
# A B C D E F G H I J K L M N O P Q R S T U V W X Y Z

Pony Pony Run Run - Girl I Know tab

hey this is my first tab !!! :)
i think it sounds right

==============================================
artist : Pony Pony Run Run (PPRR), french band
album : You need PPRR
song : girl I know
==============================================

standard tuning

riff :

e|-x-12-----x-10-----x--10---x---10---|
b|-x---12---x---10---x-9-----x-10-----|


pre chorus :

e----------------------------------------|
b----------------------------------------|
g--9-9----5-5-------9-9----5-5---7-7-7---|
d--9-9----5-5-------9-9----5-5---7-7-7---| x2
a--7-7----3-3-------7-7----3-3---5-5-5---|
E----------------------------------------|

chorus :

e------------------|-----------------|----------------|------------------|
b------------------|-----------------|----------------|------------------|
g--5-5-5-5-5-5-5-5-|---------4-4-4-4-|-5-5-5-5-7-7-7-7|-9-9-9-9-4-4-4-4--|
d--5-5-5-5-5-5-5-5-|-5-5-5-5-2-2-2-2-|-5-5-5-5-7-7-7-7|-9-9-9-9-4-4-4-4--| x2
a--3-3-3-3-3-3-3-3-|-3-3-3-3-2-2-2-2-|-3-3-3-3-5-5-5-5|-7-7-7-7-2-2-2-2--|
E------------------|-3-3-3-3---------|----------------|------------------|

  -intro : riff x3
  -verse 1 : riff x4
  -pre chorus
  -chorus
  -verse 2 : riff x4
  -pre chorus
  -chorus
Tap to rate this tab
 
# A B C D E F G H I J K L M N O P Q R S T U V W X Y Z