Song name
# A B C D E F G H I J K L M N O P Q R S T U V W X Y Z

Pony Pony Run Run - Out Of Control tab

==================================
artist : pony pony run run (pprr)
album : you need pony pony run run
song : out of control
==================================

verse 1 :

e-----------------------------------------------------------------|
b-----------------------------------------------------------------|
g---7-7----7-7----7-7----7-7----7-7----7-7----7-7----7-7----5-5---|
d---7-7----7-7----7-7----7-7----7-7----7-7----7-7----7-7----5-5---|
a---5-5----5-5----5-5----5-5----5-5----5-5----5-5----5-5----3-3---|
e-----------------------------------------------------------------|

e--------------------------------------------|
b------8--------8--------8--------8----------|
g----4---4----4---4----4---4----4---4--------|
d--------------------------------------------|
a--------------------------------------------|
e--------------------------------------------|

play the whole twice

chorus :

e------------|
b-------5----|
g-----7---7--|
d------------|  x4
a------------|
e---7--------|

verse 2 :

same as verse 1

chorus

verse 3
e-----------------------------------------|
b----7-7-7-7-8-8-7---7-7-7-7-10-10-7------|
g------------------9----------------------| x4
d------------------------------------9----|
a-----------------------------------------|
E-----------------------------------------|
chorus
Tap to rate this tab
 
# A B C D E F G H I J K L M N O P Q R S T U V W X Y Z