Song name
# A B C D E F G H I J K L M N O P Q R S T U V W X Y Z

Pony The Pirate - The Sun chords

Highlighted       Show chord diagrams
-------------------------------------------------------------------------------
                             The Sun - Pony The Pirate
-------------------------------------------------------------------------------
Tabbed by: NugatiixHD
E-mail: NugatiixHD@gmail.com

Tuning: Standard

This is the first chords i have made so please be nice! :)

-------------------------------------------------------------------------------

Intro: D - G, A - Bm, D - G, Bm - A - D, D - G
                      A       Bm
One two four three I hit the wall
                   D      G
I could not feel good at all
         Bm   A
Now just go away
    D              G
My life is in your way
               A      Bm
I don't know where to go
        D    G
I feel all alone
         Bm   A
Now just go away
    D               A
My life is in your way

Bm                                  A
You love to live love to have free will
                E
Hey! La lala lala
              D
(The boy is dead)

Now get away

Bm                                  A
You love to live love to have free will
                E
Hey! La lala lala
              D
(The boy is dead)

Now go

D - G, A - Bm, D - G, Bm - A - D, D - G
                             Bm
One two four three I hit the wall
                 D       G
I could not feel good at all
         Bm A
Now just go away
   D               G
My life is in your way

A - Bm, D - G, Bm - A - D, D - G, A - Bm, D - G, Bm - A - D - A



Bm                                  A
You love to live love to have free will
                E
Hey! La lala lala
            D
(The boy is dead)

Now get away

Bm                                  A
You love to live love to have free will
                E
Hey! La lala lala
            D
(The boy is dead)

The boy is DEAD

BRIDGE: x12

e|---------------------------------------------------------------------------|
B|---------------------------------------------------------------------------|
G|-7--4--6--7--9--12--14--11-------------------------------------------------|
D|---------------------------------------------------------------------------|
A|---------------------------------------------------------------------------|
E|---------------------------------------------------------------------------|

Then there is power chords in 3rd and 5th threat with E and A strings and 5th and 7th 
threat with A and D string.

e|---------------------------------------------------------------------------|
B|---------------------------------------------------------------------------|
G|---------------------------------------------------------------------------|
D|-----------7---------------------------------------------------------------|
A|-5---------5---------------------------------------------------------------|
E|-3-------------------------------------------------------------------------|

Get away
Get away
The boy is dead now, the boy
The boy is dead now, the boy
Now get away
The boy is dead now

The boy is dead now, the boy
The boy is dead now, the boy
The boy is dead
Tap to rate this tab
 
# A B C D E F G H I J K L M N O P Q R S T U V W X Y Z