Song name
# A B C D E F G H I J K L M N O P Q R S T U V W X Y Z

Pony Up - Shut Up And Kiss Me tab

Really quite an easy, reasonably repetitive song. Only 2 parts to it really, add some 
xylophone and drums, you're set


Repeat this over and over and over again.
E|-------------------------------------------------------------------------|
B|-------------------------------------------------------------------------|
G|-------------------------------------------------------------------------|
D|-------------7-9---------------------------------------------------------|
A|7-7-7-7-7-10-------------------10-9---------------9-10-9-----------------|
E|----------------10-10-10-10-10------10--8-8-8-8-8--------7-7-7-7-7-7-5---|


Little "solo"
E|----------------------------------------------------------------------|
B|----------------------------------------------------------------------|
G|----------------------------------------------------------------------|
D|-9-10-10-10-10-9-9----9-9-9-7-7--7-7--------------------7-7-7-9--9----|
A|-------------------------------------7-7-7-9-9-9-10-10----------------|
E|----------------------------------------------------------------------|

There are variations on the solo, number of times the note is picked, sometimes it 
a bit, but essentially it's that.  There's also bass under this tune.
Tap to rate this tab
# A B C D E F G H I J K L M N O P Q R S T U V W X Y Z