Song name
# A B C D E F G H I J K L M N O P Q R S T U V W X Y Z

Pooh - Brava La Vita tab

e ----------------------------------------------------------|
B ----------------------------------------------------------|
G ----------------------------------------------------------|
D ----10--14--12--------10--7--15--14--15--17---------------|
A -10------------14-10--------------------------------------|
E ----------------------------------------------------------|

e ----------------------------------------------------------|
B ----------------------------------------------------------|
G ----------------------------------------------------------|
D ----10--14--12--------10--7--15--14--12--10---------------|
A -10------------14-10--------------------------------------|
E ----------------------------------------------------------|
Tap to rate this tab
 
# A B C D E F G H I J K L M N O P Q R S T U V W X Y Z