Song name
# A B C D E F G H I J K L M N O P Q R S T U V W X Y Z

Poor Mans Band - Yuri tab

The Person that tabbed the last Yuri was totally incorect this is what it is:

E----------------------------------
B----------------------------------
G-----6--5--4--2-------------------X8  Get Faster and Faster
D-----6--5--4--2-------------------
A-----4--3--2--0-------------------
E----0--0--0--0--------------------

E----------------------------------
B----------------------------------
G----------------------------------
D----------------------------------
A---0-0-0-0-0-0-1-1-1-1-1-1-2-2-2-2
E---0-0-0-0-0-0-1-1-1-1-1-1-2-2-2-2

E----------------------------------
B----------------------------------
G----------------------------------
D----------------------------------
A---2-2-3-3-3-3-3-3----------------
E---2-2-3-3-3-3-3-3----------------

Yuri, Yuri your so fine, your so fine you blow my mind, Hey Yuri, Go yuri.x2 
***********************************************************
Now next time you do this palm mute instead of playing the notes.
***********************************************************
E----------------------------------
B----------------------------------
G----------------------------------
D---5-5-5-5-2-2-2-2----------------
A---3-3-3-3-0-0-0-0-3-3-3-3-5-5-5-5
E-------------------1-1-1-1-3-3-3-3
I hate those damn imitation smarties that your best friends buy for parties.

Solo:
E---7-5-0-7-5-0-9-7-0-9-7-0--------
B----------------------------------
G---------------------------------- Very Fast
D----------------------------------
A----------------------------------
E----------------------------------  

E---4-2-0-4-2-0-5-3-0-5-3-0---0----
B----------------------------------
G---------------------------------- Whole solo x5
D----------------------------------
A----------------------------------
E----------------------------------

That is the atcual tab of Yuri off of their New albulm "all the things you hate on one album"
Tap to rate this tab
# A B C D E F G H I J K L M N O P Q R S T U V W X Y Z