Song name
# A B C D E F G H I J K L M N O P Q R S T U V W X Y Z

Poor Mans Band - I Blew It tab

Poor Man's Band
I Blew It
From:All The Things You Hate On One Album

                Intro
E|---------------------------|
B|---------------------------|
G|---------------------------|
D|---5-5-5-5-7-7-7-7-9-8-7-6-|
A|---5-5-5-5-7-7-7-7-9-8-7-6-|
E|---3-3-3-3-5-5-5-5-7-6-5-4-|

I have no time anymore
You have too many problems
I have no friends
You have too many problems

               Verse
E|-------------------0----0-|
B|-------------------0----0-|
G|-------------------0----0-|
D|-------------------0----0-|
A|---2-2-5-4-3-2-7-6-0-11-0-|
E|---0-0-3-3-1-1-5-5-0-9--0-|

That's It
Enjoy
Tap to rate this tab
 
# A B C D E F G H I J K L M N O P Q R S T U V W X Y Z