Song name
# A B C D E F G H I J K L M N O P Q R S T U V W X Y Z

Poor Mans Band - Then I Ate The Bowl tab

-----------------------------------------------------------------------------
                  Then I Ate The Bowl - Poor Mans Band
-----------------------------------------------------------------------------
Tabbed by: -unknown000-
Email:glendenben@hotmail.com

Tuning:Standard

e|--------------------------------------------------------------
B|--------------------------------------------------------------
G|-----------------3-3-3-3-3-3-3-3------------------------------
D|-2-2-2-2-2-2-2-2-3-3-3-3-3-3-3-3-2-2-2-2-2-2-2-2-0-0-0-0--0-0- Verse
A|-2-2-2-2-2-2-2-2-1-1-1-1-1-1-1-1-2-2-2-2-2-2-2-2-2-2-2-2--0-0-
E|-0-0-0-0-0-0-0-0-----------------0-0-0-0-0-0-0-0-3-3-3-3--2-2-
                                                     pm-|
e|-----------------------------|-------------|------------------------------
B|-----------------------------|-------------|------------------------------
G|------------3----------------|-------------|------------------------------
D|-----2----3---3---3------2---|-----0-------|-----0------------------------
A|---2----1-------1------2---2-|---2---2---2-|---0---0---0------------------
E|-0-------------------0-------|-3-------3---|-2-------2--------------------


| /  slide up
| \  slide down
| h  hammer-on
| p  pull-off
| ~  vibrato
| +  harmonic
| x  Mute note
===============================================================================
Tap to rate this tab
 
# A B C D E F G H I J K L M N O P Q R S T U V W X Y Z