Song name
# A B C D E F G H I J K L M N O P Q R S T U V W X Y Z

Poor Seamus - Rock With Me tab

-------------------------------------------------------------------------------
			     Rock with me - Poor Seamus
-------------------------------------------------------------------------------
Song originally by: Poor Seamus ( http://www.poorseamus.com/ )
Tabbed by: Lauri Paavolainen
Email: lauri.paavolainen@gmail.com

e|---------------------------------------------------------------------------|
B|---------------------------------------------------------------------------|
G|--2---2--2--0--2-----repeat20(?)times--------------------------------------|
D|--2---2--2--0--2-----------------------------------------------------------|
A|---------------------------------------------------------------------------|
E|---------------------------------------------------------------------------|
"The way I make myself feel so bad.."

e|---------------------------------------------------------------------------|
B|-------------------------------------------------------3-------------------|
G|------0-------0-------0----------------0-------0---------------------------|
D|----2-------2-------0----------------2-------2-------0---------------------|
A|--0-------2-------2----------------0-------2-------2-----------------------|
E|---------------------------------------------------------------------------|
  "Rock with me..                    People rock with me.."


This is a very basic guitar tab and I guess it's right. I'm not so sure about the chorus 
but.. I think it's played that way =)

And yeah, I didn't tab the "My home is so far" part of the song, but that's just some 
I can't hear. You can tab them yourself =P

( first tab here, yay ^_^ )
Tap to rate this tab
 
# A B C D E F G H I J K L M N O P Q R S T U V W X Y Z