Song name
# A B C D E F G H I J K L M N O P Q R S T U V W X Y Z

Poor Seamus - Home Of The Owl tab

-------------------------------------------------------------------------------
			 Home of the Owl - Poor Seamus
-------------------------------------------------------------------------------
Song originally by: Poor Seamus. ( http://www.poorseamus.com/ )
Tabbed by: Lauri Paavolainen.
Tuning: Drop D.

Intro/Outro/Prelude --
e|---------------------------------------------------------------------------|
B|---------------------------------------------------------------------------|
G|---------------------------------------------------------------------------|
D|-xx-2-5-0-2-xxxx-7-7-5-7-xxxx----------------------------------------------|
A|-xx-2-5-0-2-xxxx-7-7-5-7-xxxx----------------------------------------------|
D|-xx-2-5-0-2-xxxx-7-7-5-7-xxxx----------------------------------------------|

Chorus: --
e|---------------------------------------------------------------------------|
B|---------------------------------------------------------------------------|
G|---------------------------------------------------------------------------|
D|-7-4-5---------------------------------------------------------------------|
A|-7-4-5---------------------------------------------------------------------|
D|-7-4-5---------------------------------------------------------------------|
Tap to rate this tab
# A B C D E F G H I J K L M N O P Q R S T U V W X Y Z