Song name
# A B C D E F G H I J K L M N O P Q R S T U V W X Y Z

Poor Seamus - Pinch tab

-------------------------------------------------------------------------------
			     Pinch - Poor Seamus
-------------------------------------------------------------------------------
Song originally by: Poor Seamus. ( http://www.poorseamus.com/ )
Tabbed by: Lauri Paavolainen.
Email: lauri.paavolainen@gmail.com


Verse: -- (1st guitar: (00:04 -------------------------------------------------|))
e|--0--0--0--0---|-------------------------------------------------------------|
B|--0--0--0--0---|-----7--7--7-------------------------------------------------|
G|---------------|-------------------------------------------------------------|
D|---------------|------9--9--9-7----------------------------------------------|
A|-7-75-54-43-3--|----9--9--9--------------------------------------------------|
D|---------------|-------------------------------------------------------------|
                 x10

2nd guitar in the intro: ( 00:14 )
e|---------------------------------------------------------------------------|
B|---------------------------------------------------------------------------|
G|---------------------------------------------------------------------------|
D|-5h7p52--------------------------------------------------------------------|
A|---------------------------------------------------------------------------|
D|---------------------------------------------------------------------------|

Chorus: -- (distorted, 2nd guitar:)
e|---------------------------------------------------------------------------|
B|---------------------------------------------------------------------------|
G|----5-------5-------5---3--------------------------------------------------|
D|-2--5-5--2--5-5--2--5-5-3--------------------------------------------------|
A|-2--3-5--2--3-5--2--3-5-2--------------------------------------------------|
D|-2----5--2----5--2----5----------------------------------------------------|

Bridge: --(not sure, something like:)
e|-----------------------------------------------------------------------------|
B|---2---2---------------------------------------------------------------------|
G|-4-2-4-2-----4---------------------------------------------------------------|
D|-4-0-4-0-----4-let~ring------------------------------------------------------|
A|-2---2---...2----------------------------------------------------------------|
D|-----------------------------------------------------------------------------|
Tap to rate this tab
 
# A B C D E F G H I J K L M N O P Q R S T U V W X Y Z