Song name
# A B C D E F G H I J K L M N O P Q R S T U V W X Y Z

Pop Evil - Hero tab

Help us improve GuitareTab! Take a short survey!
This is "Hero" by: Pop Evil (CORRECT TAB - NO SOLO)
Tabbed by: MrCrisper

Intro (figure out strumming)
---------------------------------------------------------------|
---------------------------------------------------------------|
7-----5------8-------7-------7-------5------12----7    Repeat--| x4
0-----0------0-------0-------0-------0------0-----0------------|
---------------------------------------------------------------|
---------------------------------------------------------------|

("YEEEAAAAHHHHHHHHH")
----------------------------------------------------------------|
----------------------------------------------------------------|
----------------------------------------------------------------|
0-0-10-0-10-12--0-0-10-0-10-12-10--0-0-3-0-3-5--0-0-3-0-3-5-3---|
0-0-10-0-10-12--0-0-10-0-10-12-10--0-0-3-0-3-5--0-0-3-0-3-5-3---|
0-0-10-0-10-12--0-0-10-0-10-12-10--0-0-3-0-3-5--0-0-3-0-3-5-3---|

---------------------------------------------------------------|
---------------------------------------------------------------|
---------------------------------------------------------------|
0-0-10-0-10-12--0-0-10-0-10-12-10--0-0-3-0-3-5-3--0------------|
0-0-10-0-10-12--0-0-10-0-10-12-10--0-0-3-0-3-5-3--0------------|
0-0-10-0-10-12--0-0-10-0-10-12-10--0-0-3-0-3-5-3--0------------|

Verse
("Im barely breathin'...")
---------------------------------------------------------------|
---------------------------------------------------------------|
---------------------------------------------------------------|
-0-0--------0-0------------0-0---------3----5-----3-5-3-0------|
-0-0--------0-0------------0-0---------3----5-----3-5-3-0------|
-0-0--------0-0------------0-0---------3----5-----3-5-3-0------|

---------------------------------------------------------------|
---------------------------------------------------------------|
---------------------------------------------------------------|
-0-0--------0-0------------0-0---------------------------------|
-0-0--------0-0------------0-0---------------------------------|
-0-0--------0-0------------0-0---------------------------------|

Chorus
("I wont be... I wont be your hero")
---------------------------------------------------------------|
---------------------------------------------------------------|
---------------------------------------------------------------|
-0-0-0-0-0-0-8-8-8-8-8-8-3-3-3-3-3-3-3--2-3-5------------------| Repeat x2
-0-0-0-0-0-0-8-8-8-8-8-8-3-3-3-3-3-3-3--2-3-5------------------|
-0-0-0-0-0-0-8-8-8-8-8-8-3-3-3-3-3-3-3--2-3-5------------------|

Play Verse
Play Chorus
I havent figured out the solo yet... (Sorry)

Little thing before the last chorus
---------------------------------------------------------------|
---------------------------------------------------------------|
---------------------------------------------------------------|
-0-0--------0-0------------0-0------0-0--------0-0-------------|
-0-0--------0-0------------0-0------0-0--------0-0-------------|
-0-0--------0-0------------0-0------0-0--------0-0-------------|

Play Chorus
Related for Hero tab