Song name
# A B C D E F G H I J K L M N O P Q R S T U V W X Y Z

Pop Evil - 100 In A 55 tab

Artist: Pop Evil
Song  : 100 in a 55

I watched youtube videos of Pop Evil performing this acoustic and I am
pretty 100% positive that this is how Leigh plays it. Watch a youtube video
of them performing it acoustic and you can get a feel for when to do the hammer-ons and pull-ups.
This video is pretty good: http://www.youtube.com/watch?v=PnNKk2F0wfM&feature=related
Please rate/ comment!

TUNING: Standard w/ capo on the 5th fret

Intro (x2)/ Verse 1:
"Turn back on the broken heartache..."     "Full speed got me lookin..."
E|-----3-----2h3---0-----0-----          E|-----3-----2h3---0-----0~----|
B|-----3-----3-----0-----1p0h1-          B|-----3-----3-----0-----1~----|
G|-----0-----2-----0-----0-----          G|-----0-----2-----0-----0~----|
D|-----0-----0-----2-----2----- x5  then D|-----0-----0-----2-----2~----|  x1
A|-----0h2---x-----2-----3----- end with A|-----0h2---x-----2-----3~----|
E|-----0h3---x-----0-----0-----          E|-----0h3---x-----0-----0~----|

Chorus:
"Goin' 100 in a 55 and I don't..."
E|-----3-----2-----0-----0-----|
B|-----3-----3-----0-----1-----|
G|-----0-----2-----0-----0-----|
D|-----0-----0-----2-----2-----|  x4
A|-----0h2---x-----2-----3-----|                         Play one downstroke
E|-----0h3---x-----0-----0-----|                         then silence them
                                                           right away
Fill (x2)/Verse 2:                                           /   \
"Its messed up but I got..."              "I know you don't believe in me..."
E|-----3-----2h3---0-----0-----          E|-----3-----2h3---0-----0-----|
B|-----3-----3-----0-----1p0h1-          B|-----3-----3-----0-----1-----|
G|-----0-----2-----0-----0-----          G|-----0-----2-----0-----0-----|
D|-----0-----0-----2-----2----- x5  then D|-----0-----0-----2-----2-----|  x1
A|-----0h2---x-----2-----3----- end with A|-----0h2---x-----2-----3-----|
E|-----0h3---x-----0-----0-----          E|-----0h3---x-----0-----0-----|


Chorus:
"Goin' 100 in a 55 and I don't..."
E|-----3-----2-----0-----0-----|
B|-----3-----3-----0-----1-----|
G|-----0-----2-----0-----0-----|
D|-----0-----0-----2-----2-----|  x4
A|-----0h2---x-----2-----3-----|
E|-----0h3---x-----0-----0-----|

Bridge/ Breakdown:
"I'm still falling, away from here..."
E|-----0-----2-----0-----2-----0-----2-----0-----2-----3-----|
B|-----0-----3-----3-----3-----0-----3-----3-----3-----0-----|
G|-----0-----2-----0-----2-----0-----2-----0-----2-----0-----|
D|-----2-----x-----xh2---0-----2-----0-----xh2---0-----0-----|  x1
A|-----2-----x-----3-----x-----2-----x-----3-----x-----2-----|
E|-----0-----x-----x-----x-----0-----x-----x-----x-----3-----|

Chorus:
"Goin' 100 in a 55 and I don't..."
E|-----3-----2-----0-----0-----|
B|-----3-----3-----0-----1-----|
G|-----0-----2-----0-----0-----|
D|-----0-----0-----2-----2-----|  x12
A|-----0h2---x-----2-----3-----|
E|-----0h3---x-----0-----0-----|

Enjoy! Please rate/ comment!
Tap to rate this tab
 
# A B C D E F G H I J K L M N O P Q R S T U V W X Y Z