Song name
# A B C D E F G H I J K L M N O P Q R S T U V W X Y Z

Pop Evil - Monster You Made tab

Intro:

e-------------------------------------------------|
B-------------------------------------------------|
G-------------------------------------------------|
D---------2-0---0-------9-------9-----------------|  Repeat
A-------0---------0---7---7---7---7---------------|
D-----4-------0-----7-------6---------------------|

Pre Chorus:

e---------------------------------------|
B---------------------------------------|
G---------------------------------------|
D--------0------2-2-2-------------------|
A---------------2-2-2-------------------|
D-----0----0----2-2-2-------------------|


Chorus:

e-------------------------------------------------|
B---------------------------------FILL------------|
G-----------7-----------9-------------------------|
D-----4-----7-----7-----9-------------------------| 
A-----4-----5-----7-----7--------7-5-4-0----------|
D-----4-----------7-------------------------------|


Bridge:

e---------------------------------------|
B---------------------------------------|
G---------------------------------------|
D-----7---7--7--2-----------------------|
A-----5---4--4--2-----------------------|
D------------4--2-----------------------|
   


Tap to rate this tab
# A B C D E F G H I J K L M N O P Q R S T U V W X Y Z