Song name
# A B C D E F G H I J K L M N O P Q R S T U V W X Y Z

Pop Evil - Monster You Made tab

-------------------------------------------------------------------------------
			     Monster You Made - Pop Evil
-------------------------------------------------------------------------------
Tabbed by: kseville
Email: kseville18@gmail.com
	
Tuning: Drop C# (C#, G#, C#, F#, A#, D#)

Order:

INTRO
VERSE
CHORUS
INTRO (Only play once, ignore the repeat)
VERSE
CHORUS
INTERLUDE
INTRO
CHORUS
OUTRO

INTRO:

D#]-----------------------------------------------[
A#]-----------------------------------------------[
F#]-----------------------------------------------[
C#]-------2-0---0-----------9------9--------------[		Repeat 2X	
G#]----0---------0--------7--7---7--7-------------[
C#]---4-------0---------7------6------------------[

VERSE:

D#]-----------------------------------------------[
A#]-----------------------------------------------[
F#]-----------------------------------------------[
C#]-------2-0---0-----------9------9--------------[		Repeat 4X	
G#]----0---------0--------7--7---7--7-------------[
C#]---4-------0---------7------6------------------[


D#]-----------------------------------------------[
A#]-----------------------------------------------[
F#]-----------------------------------------------[
C#]---------0---------0---------------------------[
G#]-----------------------------------------------[
C#]----0---------0--------------------------------[

D#]-----------------------------------------------[
A#]-----------------------------------------------[
F#]-----------------------------------------------[
C#]---2--2--2--2--2--2-2--------------------------[
G#]---2--2--2--2--2--2-2--------------------------[
C#]---2--2--2--2--2--2-2--------------------------[

CHORUS:

D#]-----------------------------------------------[
A#]-----------------------------------------------[
F#]-------7-------9-------------------------------[
C#]---4---7---7---9-------------------------------[		Repeat 2X
G#]---4---5---7---7-------------------------------[
C#]---4-------7-----------------------------------[ 

D#]-----------------------------------------------[
A#]-----------------------------------------------[
F#]-----------------------------------------------[
C#]---4-4-PM-2-2-PM-7-7-PM-2-2-2-2----------------[
G#]---4-4-PM-2-2-PM-7-7-PM-2-2-2-2----------------[
C#]---4-4-PM-2-2-PM-7-7-PM-2-2-2-2----------------[

D#]-----------------------------------------------[
A#]-----------------------------------------------[
F#]-------7-------9-------------------------------[
C#]---4---7---7---9-------------------------------[		Repeat 2X
G#]---4---5---7---7-------------------------------[
C#]---4-------7-----------------------------------[

INTERLUDE:

D#]-----------------------------------------------[
A#]-----------------------------------------------[
F#]----7---------------9--------------------------[
C#]----7----4----4-----9--------------------------[		Repeat 2X
G#]----5----4----4-----7--------------------------[
C#]---------4----4--------------------------------[


OUTRO:
D#]-----------------------------------------------[
A#]-----------------------------------------------[
F#]-------7-------9-------------------------------[
C#]---4---7---7---9-------------------------------[		Repeat 4X
G#]---4---5---7---7-------------------------------[
C#]---4-------7-----------------------------------[ 

D#]-----------------------------------------------[
A#]-----------------------------------------------[
F#]-----------------------------------------------[
C#]-------2-0---------------9------9--------------[
G#]----0------------------7--7---7--7-------------[
C#]---4-------0---------7------6------------------[

D#]-----------------------------------------------[
A#]-----------------------------------------------[
F#]-----------------------------------------------[
C#]-------2-0-------------------------------------[		Repeat 2X	
G#]----0------------------------------------------[
C#]---4-------0------Let the last note ring-------[

************************************

| /   slide up
| \   slide down
| h   hammer-on
| p   pull-off
| PM  palm mute
| ~   vibrato
| +   harmonic
| x   Mute note
| b   Bend
| pb  Pre-bend
| br  Bend release
| pbr Pre-bend release
| brb Bend release bend

************************************
Tap to rate this tab
# A B C D E F G H I J K L M N O P Q R S T U V W X Y Z