Song name
# A B C D E F G H I J K L M N O P Q R S T U V W X Y Z

Pop Evil - Hero tab

d#---------------------------12^ 12 10 9h10p9-7h9p7h10----------------------|
a#-12^-(10h12p1012^ play 3 x)--------------------------8/10^----------------|
f#-----------------------------------------------------------10-------------|
d#--------------------------------------------------------------10h12p10h12-|
g#--------------------------------------------------------------------------|
c#--------------------------------------------------------------------------|

d#-17^-17^--15h17p15--15----------------------------------------------------|
a#------------------18---------------20^------------20----------------------|
f#-----------------------19p17h19----------17h19p17----19-------------------|
c#--------------------------------------------------------------------------|
g#--------------------------------------------------------------------------|
c#--------------------------------------------------------------------------|

d#--------------------------------------------------------------------------|
a#----------------------------------------------------------15^-------------|
f#--------------------------------1415171514(171514 6 times)----------------|
c#----------------1214151412151412------------------------------------------|
g#1214151412151412----------------------------------------------------------|
c#--------------------------------------------------------------------------|

After chorus

d#------------------------------201815(6 times)---20^-----------------------|
a#--------------------------10----------------------------------------------|
f#-/10-----10121012-------10------------------------------------------------|
c#-----12------------10h12--------------------------------------------------|
g#--------------------------------------------------------------------------|
c#--------------------------------------------------------------------------|


I believe this to be correct.  Enjoy!!!
Tap to rate this tab
# A B C D E F G H I J K L M N O P Q R S T U V W X Y Z