Song name
# A B C D E F G H I J K L M N O P Q R S T U V W X Y Z

Pop Evil - Monster You Made Me Acoustic tab

I really liked this version of the song, but couldn't find a good tab of it anywhere so
I decided to sound it out myself. I've tabbed out the intro/chorus, verse and bridge,
and didn't feel like doing the little ending solos. Also there is a second guitar in the 
background playing small riffs, it's fairly quiet so I left that out too. Maybe if this
gets enough feedback I'll add them later. I believe it's fairly accurate, feel free to 
let me know if there are any problems!
-------------------------------------------------------------------------------
                Monster You Made Me (acoustic remix) - Pop Evil
-------------------------------------------------------------------------------
Tabbed by: Seth Steward
E-mail: Seth209steward@yahoo.com

Tuning: C# G# C# F# A# D#

The intro and Chorus are practically the same exact thing, except the chorus has a few
extra notes at the end.

Intro/chorus
D#|--4----4-------------------4-----------------------------------------------|
A#|--2--------------2-------------2-------------------------------------------|
F#|--x------------------------------------------------------------------------|
C#|--4-------------------4------------4---------------------------------------|
G#|--x------------------------------------------------------------------------|
C#|--4------------------------------------------------------------------------|

D#|-------2-------------------2-----------------------------------------------|
A#|-----------------2-------------2-------------------------------------------|
F#|---------------------------------------------------------------------------|
C#|--0-------------------0------------0---------------------------------------|
G#|--0------------------------------------------------------------------------|
C#|--0------------------------------------------------------------------------|

D#|--x----5-------------------5-----------------------------------------------|
A#|--0--------------0-------------0-------------------------------------------|
F#|--2------------------------------------------------------------------------|
C#|--2-------------------2------------2---------------------------------------|
G#|--0------------------------------------------------------------------------|
C#|--x------------------------------------------------------------------------|

D#|--4-----------5---------4--------0-----------------------------------------|
A#|--0------------------------------------------------------------------------|
F#|--2------------------------------------------------------------------------|
C#|--2------------------------------------------------------------------------|
G#|--0------------------------------------------------------------------------|
C#|--x------------------------------------------------------------------------|

Now the main riff of the verse, it is similar to studio version of the song except it
leaves out a few notes.

D#|---------------------------------------------------------------------------|
A#|---------------------------------------------------------------------------|
F#|---------------------------------------------------------------------------|
C#|--------2--0~~~~~~-------9~~~~~~--------9~~~~~~----------------------------|
G#|-----0----------------7-------------7--------------------------------------|
C#|--4----------------7-------------6-----------------------------------------|

At the end of this riff, another guitar chimes in. Here's guitar #1 at the end of the
verse, leading up to the chorus.

D#|---------------------------------------------------------------------------|
A#|---------------------------------------------------------------------------|
F#|---------------------------------------------------------------------------|
C#|--0~~~~~-------------------------------------------------------------------|
G#|--0~~~~~-------------------------------------------------------------------|
C#|--0~~~~~-------------------------------------------------------------------|

And here's guitar #2.

D#|-----9--------------9--------------7----12~~~~~~---------------------------|
A#|--------10-------------10-----10-------------------------------------------|
F#|--7--------------7---------------------------------------------------------|
C#|---------------------------------------------------------------------------|
G#|---------------------------------------------------------------------------|
C#|---------------------------------------------------------------------------|

Here's the bridge section, they play it twice through. This might be slightly off, but
it sounds close to me.

D#|----------0--------0--------------0--------0-------------------------------|
A#|-------3-----3--------3--------3-----3--------3----------------------------|
F#|---------------------------------------------------------------------------|
C#|---------------------------------------------------------------------------|
G#|--5-------------5-----------4-----------4----------------------------------|
C#|---------------------------------------------------------------------------|

D#|--17--16--14----------------------14---------------------------------------|
A#|--------------17--15--14------14------14------------17~~~~~~---------------|
F#|--------------------------------------------14--16-------------------------|
C#|--------------------------0~~~---------------------------------------------|
G#|---------------------------------------------------------------------------|
C#|---------------------------------------------------------------------------|

At the end chorus, the main riff is just the chords being strummed with a solo playing
over. Here are the chords.

D#|---------------------------------------------------------------------------|
A#|---------------------------------------------------------------------------|
F#|----------------------2----------------------------------------------------|
C#|--4---------0---------2---------2------------------------------------------|
G#|--4---------0---------0---------2------------------------------------------|
C#|--4---------0-------------------2------------------------------------------|

x - mute note
~ - let ring
Tap to rate this tab
# A B C D E F G H I J K L M N O P Q R S T U V W X Y Z