Song name
# A B C D E F G H I J K L M N O P Q R S T U V W X Y Z

Pop Levi - Pick-me-up Uppercut tab

this is a new song- there is no official site but at the bottom is the video-
eb|---------------------------------------|
Bb|---------------------------------------|
Gb|---------------------------------------|
Db|-9-9--9-9--9-9-9-9---5-5--5-5--5-5-5-5-|
Ab|-9-9--9-9--9-9-9-9---5-5--5-5--5-5-5-5-|
Eb|-7-7--7-7--7-7-7-7---3-3--3-3--3-3-3-3-|

This is da main riff.^ & chorus

Verse
Eb|--------------------------------------------------|
Bb|--------------------------------------------------|
Gb|--------------------------------------------------|
Db|-7-7-x-x-7-7-x-x-7-7-x-7--------------------------|
Ab|-7-7-x-x-7-7-x-x-7-7-x-7--------------------------|
Eb|-5-5-x-x-5-5-x-x-5-5-x-5--------------------------|

dats the whole song, just repeat the chorus and verse weneva it comes up

http://youtube.com/watch?v=FFkhDwquBsE&mode=related&search=
Tap to rate this tab
# A B C D E F G H I J K L M N O P Q R S T U V W X Y Z