Guitaretab - guitar tabs
Song name
# A B C D E F G H I J K L M N O P Q R S T U V W X Y Z

Popa Chubby - You Cant Keep A Brother Down tab

					You Can’t Keep A Brother Down
(Popa Chubby – « Brooklyn Basement Blues » )





Fade in
|----------------------------------8-9-10-/-12------------------|
|--12~~-10-12-10h12p10----10-/10~~-------------10~~------10-10--|
|------—---------------11----------------------------/11--------|
|---------------------------------------------------------------|
|------------------—--------------------------------------------|
|--------------—------------------------------------------------|

|---------------------------------------------------------------|
|------10----13FB--13~~--10--13-10/-----10/------10----10----8--|
|--/11----11—-----------------------/11------/11----11----/9----|
|---------------------------------------------------------------|
|------------------—--------------------------------------------|
|--------------—------------------------------------------------|

|-----------------5~~----5--------------------------------------|
|--------7-----------------8p5----------------------------------|
|--9---X-7—-X-5h6--------------7-X-7—7/8/7p5---7---5------------|
|--------------------------------------------7---7---7----------|
|------------------—-----------------------------------7/-------|
|--------------—------------------------------------------------|

|-----------------------------------------------------5---Let---|
|------7-Let--X-7--X-6--5-Let---------------------(7)-5---Ring--|
|------7-Ring—X-7--X-6--5-Ring------5-7-7B7p5---5--7—-5h6-------|
|------6------X-6--X-5--4--------/7-----------7--7--------------|
|--5/7----------------—-----------------------------------------|
|--------------—------------------------------------------------|

|--------5-7B-5-5------------------------------------8/9—-8/9LR-|
|------5---------------------------------------------7/8—-7/8---|
|--5/6----—--------7-5---5h6-------------------7-7--------------|
|----------------------7-5---7-------6-6-6-6-6-6-6--------------|
|------------------—-----------7-5-6-7-7-7-7-7-7-7--------------|
|--------------—------------------------------------------------|
                                 |    PM      |
|--X-9--X-7---X-5----------5-LR---10-/-12-12-12-12-12—12-12-12--|
|--X-8--X-7---X-5------7---5------10-/-12-12-12-12-12-12-12-12--|
|------—X-7---X-5h6----7---5h6----10-/-12-12-12-12-12-12-12-12--|
|-------------------7--7-----------9-/-11-----------------------|
|------------------—--------------------------------------------|
|--------------—------------------------------------------------|
                                  With thumb
|--12-12-12-12-12-12-12-12/14/(12)-12/14/12-/--7—-7LR--X-7/8----|
|--12-12-12-12-12-12-12-12/14/(12)-12/14/12-/--7--7----X-7/8----|
|--12-12-12-12-12-12-12-12/14/(12)-12/14/12-/--7--7----X-7/8----|
|---------------------------------------------------------------|
|------------------—--------------------------------------------|
|--------------—------------------------------------------------|

|--X-7—-X-5-------5-LR------------5----5---8-5-7-5h7p5---5------|
|--X-7—-X-5--X-7--5-------------5---8b---5-------------8---8p5--|
|--X-7—-X-5-—X-7--6--------5-7B---------------------------------|
|------------X-7--7-----/7--------------------------------------|
|------------------—--------------------------------------------|
|--------------—------------------------------------------------|

|----5------------------5-------------7--7-LR—-7/8—-X-7--5------|
|-------------------------------------7--7-----7/8—-X-7--5—-X-7-|
|--7---7B-7—5---7---5-----5b-/--------7--7-----7/8—-X-7--5—-X-7-|
|-------------7---7---7---------------6--6------------------X-7-|
|------------------—-----------0-5-6--7--7----------------------|
|--------------—------------------------------------------------|
                              | PM  |
|-------------------------------5-------------------------------|
|--X-7--5-LR-------------------------------------7-7-7-LR-------|
|--X-7--6-—-----5-7-7FB7p5--5-----5b-/-----------7-7-7----------|
|--X-7--7----/7-----------7---7------------------6-6-6----------|
|------------------—--------------------4-5-6-7--7-7-7----------|
|--------------—------------------------------------------------|
                                        |  PM  |
|------8-—-10PB10-------8-10-10B-10B10p8-10-8b-/----------------|
|--10~~------------10~~-------------------------------8---8---8-|
|------—-----------------------------------------9/-/9--/9--/9--|
|---------------------------------------------------------------|
|------------------—--------------------------------------------|
|--------------—------------------------------------------------|

|---------------------------------------------------5-8FB--8~~--|
|----8---8---8---8---8---10-8-----------------------------------|
|--/9--/9--/9—-/9--/9—(9)-----9/7p5-7-5h7p5---5--/6-------------|
|-------------------------------------------7-------------------|
|------------------—--------------------------------------------|
|--------------—------------------------------------------------|

|--5-8-5h8p5---5-------5----------------------------------------|
|------------8---8p5-------------------------------------5------|
|------—------------(7)—-8/7p5---7-5h6p5---5-----7---5-7-7FB----|
|------------------------------7---------7---7-5---7------------|
|------------------—--------------------------------------------|
|--------------—------------------------------------------------|

|-------------------------5-7B-5---8-5-7-5-7-5h7p5---5----------|
|--8---------------------5-------5-----------------7---8p5------|
|-(7FB)-7FB7-5-7-5h6~~-/6—---------------------------------7-7--|
|---------------------------------------------------------------|
|------------------—--------------------------------------------|
|--------------—------------------------------------------------|

|----------------------------------^R-9-8-7~~/-------7/8-5-7----|
|----------------------------------|A----------5-6-7------------|
|--7FB7p5---7-6—-------------------|K---------------------------|
|---------7-----7-------------6-LR-|E---------------------------|
|-----------------7~~-7-7—5-6-7----|----------------------------|
|--------------—------------------------------------------------|

|--5h7p5---5----------------------------------------------------|
|--------7---7-(5)--------------X-10-8h10-8h10-8h10-8-----------|
|------—-----7—-5h6-------------X---------------------9-8-7/5---|
|-------------------7-5-7-5h7-/-X-------------------------------|
|------------------—--------------------------------------------|
|--------------—------------------------------------------------|
                    | PM |
|---------------------------------------8/9—-8/9-LR-------------|
|---------------------------------------7/8—-7/8----------------|
|------—--------------------------------------------------------|
|--7-5h7-5h7-5h7-5h7-5h7-5h7-5----------------------------------|
|------------------—-----------7-6-5-X--------------------------|
|--------------—------------------------------------------------|
[ Tab from: http://www.guitaretab.com/p/popa-chubby/106565.html ]
|--X-9--X-7---X-5----------5-LR----/-12-12-12-12-12—-12/14/12---|
|--X-8--X-7---X-5------7---5-------/-12-12-12-12-12--12/14/12---|
|------—X-7---X-5h6----7---5h6-----/-12-12-12-12-12--12/14/12---|
|-------------------7--7-----------/-11-11-11-11-11-------------|
|------------------—--------------------------------------------|
|--------------—------------------------------------------------|
                                     Thumb
|--12/14/12—-12/14/12--12/14--12/14/12---7--7-Let----X-8---X-7--|
|--12/14/12--12/14/12--12/14--12/14/12---7--7-Ring---X-8---X-7--|
|--12/14/12—-12/14/12—-12/14—-12/14/12---7--7--------X-8—--X-7--|
|---------------------------------------------------------------|
|------------------—--------------------------------------------|
|--------------—------------------------------------------------|

|--X-5-----------------------------------------5-------7--7-Let-|
|--X-5---7---5-5LR-------------------------------------7--7-Ring|
|--X-5---7—--5h6----------5-7B-7B-7B-7B~~7p5-----5b----7--7-----|
|--------7---5h7------5/7--------------------7---------6--6-----|
|------------------—--------------------------------------------|
|--------------—------------------------------------------------|

|--X-7/8---X-7---X-5------------------------------5-------------|
|--X-7/8---X-7---X-5--------------------------------------------|
|--X-7/8---X-7—--X-5--------------5-7-7B7p5---5-----5b-/--------|
|----------------------5-7-7~~-/7-----------7---7---------------|
|------------------—--------------------------------------5-6-7-|
|--------------—------------------------------------------------|
                                                         | PM  | 
|-----------------8/9—-8/9-LR-9~---/9--X-7--X-5------(5)--------|
|---(7)(7)(7)(7)—-7/8--7/8-----8~--/8--X-7--X-5--X-7--5-LR------|
|----7--7—-7--7------------------------X-7--X-5--X-7--6---------|
|----6--6--6--6----------------------------------X-7--7---------|
|--X----------------—-------------------------------------------|
|--------------—------------------------------------------------|

|--/-12-12-12-12--12-12-12-12-12--X--12-12-12-12-12-12-12-------|
|--/-12-12-12-12--12-12-12-12-12--X--12-12-12-12-12-12-12-------|
|--/-12-12-12-12—-12-12-12-12-12--X--12-12-12-12-12-12-12-------|
|---------------------------------------------------------------|
|------------------—--------------------------------------------|
|--------------—------------------------------------------------|
With thumb
|--7--7-LR---X-7~~--/8--X-7--X-5-------5----------5---5---8-5-7-|
|--7--7------X--7~~-/8--X-7--X-5--X-7--5-LR-----5---8b--5-------|
|--7--7--—----------/8--X-7--X-5--X-7--6-----7B-----------------|
|---------------------------------X-7--7------------------------|
|------------------—--------------------------------------------|
|--------------—------------------------------------------------|

|--5-----------------------------------------------5------------|
|----8-5-8-5h8p5---5-5------------------------------------------|
|------—---------7-----8/7p(5)-7---5-------7---5-----5-/--------|
|--------------------------------7---7p5-7---7---7--------------|
|------------------—--------------------------------------------|
|--------------—------------------------------------------------|

|------7-LR--X-7/8--X-7--X-5------(5)---------------------------|
|---7--7-----X-7/8--X-7--X-5--X-7--5-LR-------------------------|
|---7--7-—-----7/8--X-7--X-5--X-7--6----------------------------|
|--/6-------------------------X-7--7----------------------------|
|------------------—----------------------4---4-5--4-5-6--5-6-7-|
|--------------—-----------------------/5---5-------------------|
                                       |          PM           | 
|------------7—-7--7---------7--7-----8/9—-8/9~~-9~~---9~~---/9-|
|--7-7-7--7--7—-7--7--7-7-7--7--7--X--7/8—-7/8~~--8~~/8—-8~~-/8-|
|--7-7-7--7—-7—-7--7--7-7-7--7--7--X----------------------------|
|--6-6-6--6--6—-6--6--6-6-6--6--6--X----------------------------|
|--7-7-7--7-------------—----7----------------------------------|
|--------------—------------------------------------------------|
With thumb
|--X-7---X-5--------(5)-------------------------------5---------|
|--X-7---X-5---X-7---5-LR-----8~-8~--8~-8~---7--5-5-------------|
|--X-7---X—5---X-7---6------/9~-9~----9~-9~--7—-5h6-------------|
|--------------X-7---7-----------------------7------7-----------|
|------------------—--------------------------------------------|
|--------------—------------------------------------------------|

|-----7-7-LR—-7/8---X-7---X-5--------5-LR-----------------------|
|-----7-7-----7/8---X-7---X-5---X-7--5-------------5----5-8-5---|
|-----7-7—----7/8---X-7---X-5---X-7--6------5-7-7B---7B---------|
|--/7---------------------------X-7--7----7---------------------|
|------------------—--------------------------------------------|
|--------------—------------------------------------------------|

|---------------------------------5----------7-7-LR—-7/8--------|
|--7B7p5-7---5-------------------------------7-7-----7/8--------|
|------—-7-7----7B7p5---7---5-------5b-/-----7-7-----7/8--------|
|---------------------7---7---(7)------------6-6----------------|
|------------------—---------------------5-6-7-7----------------|
|--------------—------------------------------------------------|

|--X-7---5----------------------------------5~~--------7-7-7-7--|
|--X-7---5--X-7--5-LR-----8----8----8-7----------------7-7-7-7--|
|--X-7---5—-X-7--6------/9—-8/9—-8/9--7-5--------------7-7-7-7--|
|-----------X-7--7--------------------7---7------------6-6-6-6--|
|------------------—----------------------------5-6-7--7-7-7-7--|
|--------------—------------------------------------------------|

|--8B--5---------5----8B—-5h7p5---5-------5---------------------|
|--7B--5-7-5-7~~------7B--------7---8FB~~---8-5-----------------|
|------—----------------------------------------7B7p5-7-7---5---|
|---------------------------------------------------------7---7-|
|------------------—--------------------------------------------|
|--------------—------------------------------------------------|

|------------------------------------------------------5-----5--|
|-----------------------------------------------------5—-5-8----|
|--5-7-7FB-7FB-7FB—7FB-7FB-7FB-7FB7p5-7-5~~----5-7-7B-----------|
|-------------------------------------------/7------------------|
|------------------—--------------------------------------------|
|--------------—------------------------------------------------|

|----8-5---7-5-8/10-8-10/12-11-10/8----10---/9------------------|
|--5-----5--------------------------10----10---10-----10-10~~---|
|------—------------------------------------------/11-----------|
|---------------------------------------------------------------|
|------------------—--------------------------------------------|
|--------------—------------------------------------------------|
                                                         Fade out









Guide to Tablature

b:1/4 bend
B:1/2 bend
FB:full bend
5FB5:bend and release
5FB5p3:bend, release and pull off 
5PB10:pre-bend
h:hammer on
p:pull off
/:slide  
~:vibrato
PM:Palm Muted
.:dotted note
X:note played with heavy damping 

---------------------------------------------
“You Can’t Keep A Brother Down” by Popa Chubby, as heard on the album “Brooklyn Basement Blues”
Transcription: Frederic Winne 
choko_tof@yahoo.fr – other Popa Chubby Tabs on http://www.brusselscityblues.fr.tc
Related for You Cant Keep A Brother Down tab