Song name
# A B C D E F G H I J K L M N O P Q R S T U V W X Y Z

Popa Chubby - Let The Music Set You Free tab

Help us improve GuitareTab! Take a short survey!
Let The Music Set You Free
(Popa Chubby   Deliveries After Dark )




|-----------------------------------------------------------|
|------------------9---7---9--------------------------------|
|--*string noise*--9---7--9------------0-------------------|
|------------------9---7---9----0-2-0-2---2p0-----------0---|
|------------------7---5---7------------------2-0-2-0-2-----|
|----------------------------------------------------------|

|-----------------------------------------------------------|
|------------9---7---9--------------------(4)-Let-----------|
|-----------9---7---9------------0--------4----Ring--------|
|------------9---7---9----0-2-0-2---2p0----4----------------|
|--2p0----0--7---5---7-----------------2--2----------------|
|------3b--------------------------------------------------|

|-----------------------------------------------------------|
|--9---7---9------------------------------------------------|
|--9---7--9------------0-----------------------------------|
|--9---7---9----0-2-0-2---2p0-----------0-------------------|
|--7---5---7------------------2-0-2-0-2---2p0----0----------|
|--------------------------------------------3b------------|

|-----------------------------------------------------------|
|--9---7---9--------------------(4)-Let---------------------|
|--9---7---9------------0--------4----Ring------------------|
|--9---7---9----0-2-0-2---2p0----4--------------------------|
|--7---5---7-----------------2--2--------------------------|
|----------------------------------------------------------|

|-----------------------------------------------------------|
|--9---7---9------------------------------------------------|
|--9---7--9------------0-----------------------------------|
|--9---7---9----0-2-0-2---2p0-----------0-------------------|
|--7---5---7------------------2-0-2-0-2---2p0----0----------|
|--------------------------------------------3b------------|

|-----------------------------------------------------------|
|--9---7---9--------------------(4)-Let---------------------|
|--9---7---9------------0--------4----Ring------------------|
|--9---7---9----0-2-0-2---2p0----4--------------------------|
|--7---5---7-----------------2--2--------------------------|
|----------------------------------------------------------|

|-----------------------------------------------------------|
|--9---7---9------------------------------------------------|
|--9---7--9------------0-----------------------------------|
|--9---7---9----0-2-0-2---2p0-----------0-------------------|
|--7---5---7------------------2-0-2-0-2---2p0----0----------|
|--------------------------------------------3b------------|

|-----------------------------------------------------------|
|--9---7---9--------------------(4)-Let---------------------|
|--9---7---9------------0--------4----Ring-4-4-4-4----------|
|--9---7---9----0-2-0-2---2p0----4---------4-4-4-4----------|
|--7---5---7-----------------2--2---------2-2-2-2----------|
|----------------------------------------------------------|

|-----------------3---0-0-0-0-0-0----------0-0----2---------|
|-----------------3---3-3-3-3-3-0----------0-0-X--3-Let-----|
|----------------1---1-1-1-1-1-1----------1-1-X--2-Ring----|
|-----------------2---2-2-2-2-2------------2-2-X--0---------|
|--2-1-0----------2----------------------------------------|
|--------3b~~-0---0---------------3b~~-0-------------------|

|-----------------3---0-0-0-0-0-0----------0-0----2---------|
|-----------------3---3-3-3-3-3-0----------0-0-X--3-Let-----|
|----------------1---1-1-1-1-1-1----------1-1-X--2-Ring----|
|-----------------2---2-2-2-2-2------------2-2-X--0---------|
|--2-1-0----------2----------------------------------------|
|--------3b~~-0---0---------------3b~~-0-------------------|

|-----------------3---0-0-0-0-0-0----------0-0----2---------|
|-----------------3---3-3-3-3-3-0----------0-0-X--3-Let-----|
|----------------1---1-1-1-1-1-1----------1-1-X--2-Ring----|
|-----------------2---2-2-2-2-2------------2-2-X--0---------|
|--2-1-0----------2----------------------------------------|
|--------3b~~-0---0---------------3b~~-0-------------------|

|-----------------3---0-0-0-0-0-0---------------------------|
|-----------------3---3-3-3-3-3-0--0------------------------|
|----------------1---1-1-1-1-1-1--0-4-4-4-4-4-4-4-4-4------|
|-----------------2---2-2-2-2-2----0-4-4-4-4-4-4-4-4-4------|
|--2-1-0----------2-----------------2-2-2-2-2-2-2-2-2------|
|--------3b~~-0---0----------------------------------------|

|-----------------------------------------------------------|
|-------------------9---7---9-RIFF-1-----------------------|
|--/7-7-7-7-2-2-2--9---7---9-------------------------------|
|--/7-7-7-7--2-2-2--9---7---9-------------------------------|
|--/5-5-5-5--0-0-0--7---5---7------------------------------|
|----------------------------------------------------------|


Solo 1 :


Wah effect
|-----------------------------------------------------------|
|--15---------15----------15FB--15FB15-12------------------|
|--14FB~~-14FB-14BR12~~-----------------14-12~~---------12|
|--------------------------------------------------12-------|
|---------------------------------------------------14-14--|
|----------------------------------------------------------|

|--(15)----15-15--------------------------(15)---15-15------|
|---15---15--------------------------------15--15-----------|
|---14FB-------14BRp12-14-12~~-14B14p12~~-14FB-------14BR--|
|-----------------------------------------------------------|
|----------------------------------------------------------|
|----------------------------------------------------------|

|-----------------------------------------------------------|
|------------4----------------------------------------------|
|--p12-12~~--4--ETC.---------------------------------------|
|------------4----------------------------------------------|
|------------2---------------------------------------------|
|----------------------------------------------------------|


Solo 2 :


Wah effect
|--15---15---15---------(15)-15-15--------------------------|
|--15---15---15----------15---------------------------------|
|--14FB-14FB-14FB14-12~~14FB------14BR-p12-14-12~~---------|
|---------------------------------------------------12------|
|----------------------------------------------------------|
|----------------------------------------------------------|

|--------------15-15------------------------15---15----/----|
|--------------15-1515FB~~-15FB15-12-------15---15----/----|
|-------12~~--14-14------------------12~~--14FB-14FB--/----|
|-----------------------------------------------------------|
|--14-14---------------------------------------------------|
|----------------------------------------------------------|

|-----------------------------------17FB-17FB-17FB~~17BR----|
|--4-4-4-4-4-4-4-4-/-7-7-7-7-7-7-/--------------------------|
|--4-4-4-4-44-4-4-/-7-7-7-7-7-7-/--------------------------|
|--4-4-4-4-4-4-4-4-/-7-7-7-7-7-7-/--------------------------|
|--2-2-2-2-2-2-2-2-/-5-5-5-5-5-5-/-------------------------|
|----------------------------------------------------------|

|--17FB17-15-17-17FB17-15-17-17FB17-15-17-15----------------|
|--------------------------------------------17~~17~~17~~---|
|----------------------------------------------------------|
|-----------------------------------------------------------|
|----------------------------------------------------------|
|----------------------------------------------------------|

|--15/------------------------------------------------------|
|-------15FB~~-15-12-------------15---15---15~~---15--15----|
|------------------14-12--------14FB-14FB-14FB~~-14FB------|
|------------------------14-12------------------------------|
|----------------------------14----------------------------|
|----------------------------------------------------------|

|-----------------------------------------------------------|
|-----------------------------------------------------------|
|--14BR-12-14-12-15/14p1214-14---12--------12/-------------|
|-------------------------------14---14-14~~----14-Tremolo--|
|-------------------------------------------------Picking--|
|----------------------------------------------------------|

|--15p12-15p12-15p12-15p12---15p12-15-15FB---15~~-12-----|
|-------12-----12-----12-----12-----------------------------|
|----------------------------------------------------------|
|-----------------------------------------------------------|
|----------------------------------------------------------|
|----------------------------------------------------------|

|--15p12-14p12-12-------------------------------------------|
|-----------------15-12---12--------------------------------|
|----------------------14--14-15/14p12--14--12-14p12/11----|
|--------------------------------------14--14---------------|
|----------------------------------------------------------|
|----------------------------------------------------------|

|-----------------------------------------------------------|
|-----------------------------------------------------------|
|--12p11/9-11p9/7-9p7/6-7p6/4-46~~-6-7-/-0--0-2-3-3B-3B----|
|-----------------------------------------------------------|
|----------------------------------------------------------|
|----------------------------------------------------------|

|-----------------------------------------------------------|
|-----------------------------------------------------------|
|--3B-3B-3B-3B-3B3B-3B-3B3/2p0-----------------------------|
|-------------------------------2-0-2T0-2-0-----0-2/5/7/9---|
|------------------------------------------0-2-------------|
|----------------------------------------------------------|

|-----------------------------------------------------------|
|----------------------3/5-5-5-5-5-5/8-8-8-8-8-8/10-10-10---|
|--7-------12----12----------------------------------------|
|----9-12-9---/14-------------------------------------------|
|----------------------------------------------------------|
|----------------------------------------------------------|

|-----------------------------------------------------------|
|--10-10-10/12-12-12-12-12-12/15-15-15-15-15-15/17-17-17----|
|----------------------------------------------------------|
|-----------------------------------------------------------|
|----------------------------------------------------------|
|----------------------------------------------------------|

|-----------------------------------------------19--/-------|
|--17-17-17/20-20-20-20-20-20/22-22-22-22-22-22-------------|
|----------------------------------------------------------|
|-----------------------------------------------------------|
|----------------------------------------------------------|
|----------------------------------------------------------|

|--19FB~~--19FB-19-18-17-15-17FB~~--17FB-17-15-17-15-17-----|
|-----------------------------------------------------------|
|----------------------------------------------------------|
|-----------------------------------------------------------|
|----------------------------------------------------------|
|----------------------------------------------------------|

|--17FB17p15-17-17-15---------------------------------------|
|--------------------17-15-17~~/----15-15-12---12-----------|
|-------------------------------/12---------14---14B14p12--|
|-----------------------------------------------------------|
|----------------------------------------------------------|
|----------------------------------------------------------|

|---------------------------15------------------------------|
|-----------------------------------------15--15------------|
|----14--12------------14FB14BR-12~~-/--14FB-14BR-12-----|
|--14--14-14p12--12-14------------------------------------|
|---------------14-----------------------------------------|
|----------------------------------------------------------|

|---------------------------------------------15------------|
|-----------------------------------------------------------|
|----14-12~~-------------12-14-14-12~~---14FB-14B-14-12b-|
|--14--14----------12-14-14---------------------------------|
|-------------12/14----------------------------------------|
|----------------------------------------------------------|

|------15---------------------------------------------------|
|-----------------------------------------------------------|
|--14FB-14FB-14-12/------------4~~-------------7~~--------|
|-----------------------------------------------------------|
|---------------------2--2-4/6-------5--5-7/9------------|
|----------------------------------------------------------|

|-----------------2--2--2-LET-------------------------------|
|-----------------3--3--3-RING------------------------------|
|-----------2~~--2--2--2------------------4~~--------------|
|-----------------0--0--0-----------------------------------|
|--0--0-2/4--------------------2-2-4/6------5--5-7/9---|
|----------------------------------------------------------|

|----------------------2--2--2-LET--------------------------|
|----------------------3--3--3-RING-------------------------|
|--7~~------------2~~--2--2--2------------------4~~---------|
|----------------------0--0--0------------------------------|
|-------0--0-2/4--------------------2-2-4/6------5--5---|
|----------------------------------------------------------|

|-----------------------------------------------------------|
|--------------------------------15FB-LET RING--------------|
|-----7~~---------------9~~--------------------------------|
|-----------------------------------------------------------|
|--7/9------7--7-7-9/11------------------------------------|
|----------------------------------------------------------|


Next Riff 1 + Octaver effect



Guide to Tablature

b:1/4 bend
B:1/2 bend
FB:full bend
5FB5:bend and release
5FB5p0:bend, release and pull off 
BR:bend released
h:hammer on
p:pull off
/:slide  
~:vibrato
T:Trill (rapid alternation between 2 notes)
PM:Palm Muted
.:dotted note
X:note played with heavy damping 

---------------------------------------------
Let The Music Set You Free by Popa Chubby, as heard on the album Deliveries After Dark
Transcription: Frdric Winne 
choko_tof@yahoo.fr  http://www.brusselscityblues.fr.tc


Related for Let The Music Set You Free tab