Song name
# A B C D E F G H I J K L M N O P Q R S T U V W X Y Z

Popcorn - Juliana tab

JULIANA 
POPCORN 
COLOMBIA

-NOSE SE SI SEAN LO TONOS PERO ESTE ES MASOMENOS LAS NOTAS




|-----11-------------9-----------8------------------------------------|
|-9-9----9-9-9-9-9-9---9-9-9-9-9---9-9-9-9-9-11-9---------------------|
|---------------------------------------------------------------------|X2
|---------------------------------------------------------------------|
|---------------------------------------------------------------------|
|---------------------------------------------------------------------|


|-----11-11-11-11-11-9--9--9--9--9--11-11-11-11-11----9-9--8-8-------|
|-9---9--9--9--9--9--9--9--9--9--9--9--9--9--9--9-----9-9--9-9-------|
|--------------------------------------------------------------------|X2
|--------------------------------------------------------------------|
|--------------------------------------------------------------------|
|--------------------------------------------------------------------|



|-11-11-11-11-11-9--9--9--9--9--8--8--8--8--8--6--6--6--6--6---------|
|-9--9--9--9--9--9--9--9--9--9--9--9--9--9--9--9--9--9--9--9---------|
|--------------------------------------------------------------------|X2
|--------------------------------------------------------------------|
|--------------------------------------------------------------------|
|--------------------------------------------------------------------|



lOS ACORDES SON  D-A-B-G CON PM ( AL FINAL DE G AŅADIR 1 SOLO DE A)
Tap to rate this tab
# A B C D E F G H I J K L M N O P Q R S T U V W X Y Z