Guitaretab - guitar tabs
Song name
# A B C D E F G H I J K L M N O P Q R S T U V W X Y Z

Popeda - Kakskyt Centti tab

Popeda- Kakskytä Centtiä

I'm just 12 years old and this is my first tab.
Comments here please ake.k@hotmail.com
[ Tab from: http://www.guitaretab.com/p/popeda/181624.html ]
E-0-0-0-0---------------0-0-0-3-1-0---0-1-0--0-0-0-0--------------]
B---------3-1-0---------------------3----------------3-1-0--------]
G---------------2-0-2--------------------------------------2-0-2--]
D-----------------------------------------------------------------]
A-----------------------------------------------------------------]
E-----------------------------------------------------------------]

E-----------------------------------------------------------------]
B--0-1-3-1-0---------------12-13-15-13-12-------------------------]
G-2----------2-0-2-------14--------------14-12--------------------]
D-----------------------------------------------------------------]
A-----------------------------------------------------------------]
E-----------------------------------------------------------------]
Related for Kakskyt Centti tab
Advertisement will be closed in 10 seconds