Song name
# A B C D E F G H I J K L M N O P Q R S T U V W X Y Z

Popeda - Sukset tab

      Intro
|-7-----5-----5--------|
|---8-----7-----5------|
|-----7-----7-----6----|X4 but in 4th time left in 5
|----------------------|
|----------------------|
|----------------------|



|----------------------|
|----------------------|
|-2--2222--------22----|X2
|-2--2222---7----22----|
|-----------5----------|
|----------------------|



|----------------------|
|----------------------|
|-----------7----------|
|-7--7777---5----77----|           This is not maybe right amount but the 
|-5--5555--------55----|           riff will go something like that.
|----------------------|

|----------------------|
|----------------------|
|-2--2222--------2222--|
|-2--2222---7----2222--|
|-----------5----------|
|----------------------|

|----------------------|
|----------------------|
|-2--2222--------22----|
|-2--2222---7----22----|
|-----------5----------|
|----------------------|

|----------------------|
|----------------------|
|-----------2----------|
|-2--2222---2-22-------|
|-2--2222-----22-------|
|----------------------|


|----------------------------------|
|----------------------------------|
|-2--2222--------22----------------|
|-2--2222---7----22---44556677-----|
|-----------5---------22334455-----|
|----------------------------------|


|----------------------|
|----------------------|
|----------------------|
|-7-------2----7-------|x4... or more or less... =D
|-5---2---0----5-------|
|-----0----------------|



Tap to rate this tab
# A B C D E F G H I J K L M N O P Q R S T U V W X Y Z