Song name
# A B C D E F G H I J K L M N O P Q R S T U V W X Y Z

Popeda - Matkalla Alabamaan tab

tabbed by : joppe

e|------------------------------------------------------------|
B|----7-77-5---5---------7-5-7-7-7-5--7-----------------------|
G|-----------7---7-------------------7------------------------|
D|--------------------8---------------------------------------|
A|------------------------------------------------------------|
E|------------------------------------------------------------|

e|------------------------------------------------------------|
B|------------------------------------------------------------|
G|------------------------------------------------------------|
D|------------------------------------------------------------|
A|--------------0-0-2-2-3-3------------0-0-2-2-3-3------------|
E|--0-0-2-2-3-3-------------0-0-2-2-3-3-----------------------|


Chords: verse D C D E A(Play ^ that thing)2x
Chorus G A F# H 3x then E A E A (Play that H from second fret of the A string)

solo is too hard to find but thats about it 
Tap to rate this tab
# A B C D E F G H I J K L M N O P Q R S T U V W X Y Z