Song name
# A B C D E F G H I J K L M N O P Q R S T U V W X Y Z

Popeda - Eln Itselleni tab

Artist: Popeda
Song: Elän Itselleni
Album: Täydelliset Miehet

Intro:
A5 B5 x4


Verse:

Viiltää sanat syvempään

Ohi kiitää tunnit kuin itsestään
      A5		G
Pelko tarttuu äänees ja sanoihin
	  A5
Se kaikki sattuu
Bm  Bsus2      Bm       Bsus2
Viiltää totuus sydämeen
   Bm  Bsus2       Bm       Bsus2
Se piirtää kuvamme uudelleen
       A	   G
Lehden selaan, sua tarkkailen
      A			 E5	     D5   A5
Pelin pelaat sä korttiin viimeiseen


Chorus:
       Bm		  G		   D		Dmaj7
Vaikka maailman ääriin mä vuokses sun matkasin
       Bm		  G		 D	   Dmaj7
Tiellä kuolevan porteilla helvetin poikkesin
	  G		  E5
Ei tarvii todistaa mun mitään
	  Bm		   F#m
Se toinen saa sut kyllä pitää
	 G
En katso taakseni
   A5		  Bm
Mä elän itselleni

|-------------------------------------------|
|-------------------------------------------|
|-4~--9/7-7--6-6-6/4-4~--9/7-7--6-6-6/4-----|
|-------------------------------------------|
|-2~--7/5-5--4-4-4/2-2~--7/5-5--4-4-4/2-----|
|-------------------------------------------|

-> 2nd verse
-> Chorus

Solo:

|-----------------------------------0h2p0------------------------------|
|---3-2---2-3h2h3p2---2-------2-3-5-------3-2-3-5-5b7-5p3p2-------2h3--|
|-4-----4-----------4---4-3-4---------------------------------2h4------|
|----------------------------------------------------------------------|
|----------------------------------------------------------------------|
|----------------------------------------------------------------------|

|------------------------------------------------------------------|
|-10b12-10p7-------------------------------------------------------|
|------------9-7---------------------------------------------------|
|----------------9p7----------------9-7----------------------------|
|--------------------9-7----7h9---------9-7----7-7h9~--------------|
|------------------------10-----7-----------10---------------------|

|------------------------------------------------------------------|
|------------------------------------------------------------------|
|-777-666---------999-777-666--------------------------------------|
|---------999-777-------------999-7--------------------------------|
|-----------------------------------9~-7----7~----------5~---------|
|----------------------------------------10---10--7s5s7------------|

|------------------------------------------------------------------|
|-15b17-15-14-14s12-12s10-10~---7-10p7---7-10p7---7-10p7----7------|
|-----------------------------9--------9--------9---------9--------|
|------------------------------------------------------------------|
|------------------------------------------------------------------|
|------------------------------------------------------------------|

|------------------------------------------------------------------|
|------------------------------------------------------------------|
|-7-7-9-9~---------------------------------------------------------|
|------------------------------------------------------------------|
|-5-5-7-7~---------------------------------------------------------|
|------------------------------------------------------------------|

Chorus:
       Bm		  G		   D		Dmaj7
Vaikka maailman ääriin mä vuokses sun matkasin
       Bm		  G		 D	   Dmaj7
Tiellä kuolevan porteilla helvetin poikkesin
	  G		 E5
Ei tarvii todistaa mun mitään
	  Bm		  C5		D5
Se toinen saa sut kyllä pitää


Last Chorus:

Vaikka maailman ääriin mä vuokses sun matkasin

Tiellä kuolevan porteilla helvetin poikkesin
	  Bb5		 G5
Ei tarvii todistaa mun mitään
	  D5		  A5
Se toinen saa sut kyllä pitää
	  Dm		     Bb		      F	        Fmaj7
Ja vaikka maailman ääriin mä vuokses sun matkasin
       Dm		  Bb		 F	  Fmaj7
Tiellä kuolevan porteilla helvetin poikkesin
	  Bb5		 G5
Ei tarvii todistaa mun mitään
	  D5		  A5
Se toinen saa sut kyllä pitää
	 Bb5		C5
En katso taakseni
   	 Bb5		C5
En katso taakseni
	 Bb5
En katso taakseni
   C5		  D
Mä elän itselleni

Chords:

    A5     B5     G    Bm     Bsus2     E5   
|-----------------3-----2-------2------------|
|-----------------3-----3-------2------------|
|----2------4-----0-----4-------4--------9---|
|----2------4-----0-----4-------4--------9---|
|----0------2-----2----(2)-----(2)-------7---|
|-----------------3--------------------------|

    D5      D    Dmaj7     F#m      C5 
|-----------2------2--------2----------------|
|----3------3------3--------2----------------|
|----2------2------2--------2-------5--------|
|----0------0------x--------4-------5--------|
|------------------4--------4-------3--------|
|---------------------------2----------------|

    Bb5     G5     Dm     Bb    F    Fmaj7
|-------------------5-----6------------------|
|-------------------6-----6-----10-----10----|
|-----------12------7-----7-----10-----10----|
|----8------12------7-----8-----10-----10----|
|----8------10------5-----8-----8------7-----|
|----6--------------------6------------------|
Tap to rate this tab
# A B C D E F G H I J K L M N O P Q R S T U V W X Y Z