Song name
# A B C D E F G H I J K L M N O P Q R S T U V W X Y Z

Popol Ace - Music Box tab

Music Box (Schulze)

Great song from a Norwegian Prog band called Popol Ace. They were initially called Popol 
but changed their name to avoid confrontation with a German band with a similar name. 
song came out in 1973 and is taken from the album Quiche Maya

Standard tuning, listen to the track for timing
(the song is originally played with a 12-string guitar)

Intro & Verses

---------0----------------------0---------0-----------------0-----------0-|
---1p0-----0-1p0--------1p0-------0-1p0-------------1p0--------0-1p0------|
------2----------2----------2-----------2---------2-----2-------------2---|
-------2----------------------2-----------------0---------0---------------|
--0----------------2--3-----------------------2---------------------------|
--------------------------------------------------------------------------|

-------------0----------0-|
----1p0--------0--1p0-----|
--------1-------------1---|
----------2---------------|
--------------------------|
--0-----------------------|

Verse 1

Sitting in our music box, making songs I wonder now what for
Is there really more to tell, or haven't you really heard it all before.

Bridge

-----------0-1---------1---------5-------5-------5--------|
---1p0---------1p0-------------6-------6-------6----5h6---|
-------2------------2--------7-------7-------7----------7-|
---------3-----------------7-------7-------7--------------|
----------------------------------------------------------|
--1-------------------------------------------------------|

---------------------0--1--------------0--1----0--1------|
--0p1------0p1------------0--0p1------------0-------0----|
------2--------2-----------------2-----------------------|
--------2--------------------------2---------------------|
--0--------0-----------------0---------0-------2---------|
---------------------4-----------------------------------|

-------------0-1--------1-------------------0-------------------0---|
----1p0----------1p0---------------0------------------0-------------|
--------2------------2---------------1---1--------------1---1-------|
----------3---------------------2------2-----------2------2---------|
------------------------------2------------------2------------------|
--1-------------------------0------------------0--------------------|

Oh - who can tell
Oh - in the end it won't make no difference

Then the rest of the band comes in, but the verses and bridges are still
the same.

Verse 2

What is there more now to create
we cannot find new words for love and hate
All we do is done before
and all we say is said by people great

Bridge

Oh - who can tell
Oh - in the end it won't make no difference

Verse 3

Time has come for us to end
this fairy-tale of music-poetry
But I must admit we do believe
in our well known insanity

Bridge

Oh - who can tell
Oh - in the end it wont make no difference

Fade out with verse before solo

Rhythm for solo

---------------------------------------------------|
--------1----------1-----------1-----------2-------|
------2---2------2---2-------2---2-------2---2-----|
----2------2---2-------2---2-------2---2-------2---|
--0----------2-----------3-----------4-------------|
---------------------------------------------------|

-----------------------------------------------------|
--------6------------6------------6------------7-----|
------7---7--------7---7--------5---5--------8---8---|
----7-------7----7-------7----7-------7----7-------7-|
--5------------7------------8------------9-----------|
-----------------------------------------------------|

-------------------------------------------------------------------|
----------8--------------8---------------8---------------10--------|
--------9---9----------9---9-----------7---7----------10----10-----|
-----10-------10----10-------10-----10-------10----10----------10--|
--10--------------11-------------10--------------8-----------------|
-------------------------------------------------------------------|

----------------------------------------------------------------|
--------8------------8------------7-----------------------------|
------5---5--------8---8--------7---7-------------4-------------|
----5-------5----8-------8----7-------7--------5-----5----------|
--7------------6------------5----------------5---------5--------|
-------------------------------------------3--------------------|

Start over until it fades out

Solo:

---------18b20--19b20--18b19--17-16-17------------17-------17-17-|
--20b22--------------------------------17---16h17----16h17-------|
-----------------------------------------------------------------|
-----------------------------------------------------------------|
-----------------------------------------------------------------|
-----------------------------------------------------------------|

--------------10----------------------------------------------------|
--13b15-13b15-----13b15p10------------------------------14-15-14-15-|
---------------------------12-10---------12--14---16-17-------------|
----------------------------------12--14----------------------------|
--------------------------------------------------------------------|
--------------------------------------------------------------------|

--13----15-13------13-14-15--15b17b15---15-15-16--------------|
-----15-------15----------------------------------13----------|
-----------------------------------------------------13--12---|
--------------------------------------------------------------|
--------------------------------------------------------------|
--------------------------------------------------------------|

---------13-------------------------------------------15------|
-------------------------------------------13---15b17----15---|
--13h14------15--13---------------------12--------------------|
--------------------15-------10-12--/14-----------------------|
-----------------------15-------------------------------------|
--------------------------------------------------------------|

---------11---------------------------------------------------|
--------------------------------------------------------------|
--10b12-----10b11-10b12-8--10---8-10-10b12p8--10b12-----------|
--------------------------------------------------------------|
--------------------------------------------------------------|
--------------------------------------------------------------|

-----------15-------15--18b20-18b20-18b20-18b20-------------------------|
--------15----18b19-----------------------------20b22-20b22-20b22-20-17-|
--17b19-----------------------------------------------------------------|
------------------------------------------------------------------------|
------------------------------------------------------------------------|
------------------------------------------------------------------------|

--------12------------------------------|
--15b17----15-14-13---15-14-------------|
----------------------------14----------|
-------------------------------14-12-10-|
----------------------------------------|
----------------------------------------|

After this it fades out

Enjoy
www.myspace.com/popolaceprog
Tap to rate this tab
# A B C D E F G H I J K L M N O P Q R S T U V W X Y Z