Song name
# A B C D E F G H I J K L M N O P Q R S T U V W X Y Z

Poptart Monkeys - Obsession tab

Artist: Poptart Monkeys
Title: Obsession
Album: Dancing With My Lunatic
Transcribed by: Eric
Email: eric_kurtz@hotmail.com
Drop D sixth string (DADGBe)

Intro (and chorus)
E]--------------------------------------------------------|
B]--------------------------------------------------------|
G]--------------------------------------------------------|
D]-3----3--3--1--3----3-3--6--8--1--1--1--1-1--6--8--1----| X2
A]-3----3--3--1--3----3-3--6--8--1--1--1--1-1--6--8--1----|
D]-3----3--3--1--3----3-3--6--8--1--1--1--1-1--6--8--1----|


Fast up and down picking........
E]--------------------------------------------------------|
B]--------------------------------------------------------|
G]--------------------------------------------------------|
D]--------------------------------------------------------|
A]-3-3-3-3-3-3-1-3-3-3-3-3-3-1-3-3-3-3-3-3-1-3-3-3-3-3-3--|
D]-3-3-3-3-3-3-1-3-3-3-3-3-3-1-3-3-3-3-3-3-1-3-3-3-3-3-3--|

E]--------------------------------------------------------|
B]--------------------------------------------------------|
G]--------------------------------------------------------|
D]--------------------------------------------------------|
A]-8-8-8-8-8-8-6-8-8-8-8-8-8-6-8-8-8-8-8-8-6-8-8-8-8-8-8--|
D]-8-8-8-8-8-8-6-8-8-8-8-8-8-6-8-8-8-8-8-8-6-8-8-8-8-8-8--|

and then thats the whole song.
Tap to rate this tab
# A B C D E F G H I J K L M N O P Q R S T U V W X Y Z