Song name
# A B C D E F G H I J K L M N O P Q R S T U V W X Y Z

Poptart Monkeys - Planet Blue tab

Artist; Poptart Monkeys
Song; Planet Blue
Drop D tuning

Intro:
E----------------|-----------------|----------------|----------------|
B----------------|-----------------|----------------|----------------|
G----------------|-----------------|----------------|------------10-7|
D----------------|-----------------|----------------|----------------|
A-000-3-0-65-0350|-000-3-0-65-0350-|-000-3-0-65-0350|-000-3-0-65-8--5|
D-000-3-0-65-0350|-000-3-0-65-0350-|-000-3-0-65-0350|-000-3-0-65-----|

Verse:
E----------------|-----------------|----------------|----------------|
B----------------|-----------------|----------------|----------------|
G----------------|-----------------|----------------|------------10-7|
D----------------|-----------------|----------------|----------------|
A-000-3-0-65-0350|-000-3-0-65-0350-|-000-3-0-65-0350|-000-3-0-65-8--5|
D-000-3-0-65-0350|-000-3-0-65-0350-|-000-3-0-65-0350|-000-3-0-65-----|

Chorus:
   D                C                 Bd                        C
E--2-------------|-----------------|----------------|----------------|
B---3------------|-----------------|----------------|----------------|
G--2-------------|--5--------------|--3-------------|-----------5----|
D----------------|--5--------------|--3-------------|-----------5----|
A--0-------------|--3--------------|--1-------------|-----------3----|
D--0-------------|-----------------|----------------|----------------|

Interlude:
E----------------|-----------------|----------------|----------------|
B----------------|-----------------|----------------|----------------|
G----------------|-----------------|----------------|----------------|
D-00000-3333-5555|-00000-3333-5555-|-00000-3333-5555|00000-3333-5555-|
A-00000-3333-5555|-00000-3333-5555-|-00000-3333-5555|00000-3333-5555-|
Tap to rate this tab
# A B C D E F G H I J K L M N O P Q R S T U V W X Y Z