Song name
# A B C D E F G H I J K L M N O P Q R S T U V W X Y Z

Population 1 - Spaceman tab

hey everyone, im so sorry, i made a MAJOR stuff up on my last tab of this song, dont kno 
came over me to put the tabs the way i did, this is the absolute correct version of Spaceman.
if u havent heard the song, contact me, and i will email it to u
ROCK ON
ZOiD 3000


Guitar 1
e|-------------------------------------------------------------------------|
B|-------------------------------------------------------------------------|
G|-------------------------4---4---4--6-6----------------------------------|
D|-------------------------------------------------------------------------|
A|--6---6---6-6--6-6--6----2---2---2--4-4----------------------------------|
E|--4---4---4-4--4-4--4----------------------------------------------------|

Guitar 2
e|-------------------------------------------------------------------------|
B|--0--------00--2-4-0-----------00-2-4-1h2h1h2h1--------------------------|
G|-------------------------------------------------------------------------|
D|-------------------------------------------------------------------------|
A|-------------------------------------------------------------------------|
E|-------------------------------------------------------------------------|

Guitar 1
e|-------------------------------------------------------------------------|
B|-------------------------------------------------------------------------|
G|-------------------------4---4---4---------------------------------------|
D|------------------------------------4-4----------------------------------|
A|--6---6---6-6--6-6--6----2---2---2---------------------------------------|
E|--4---4---4-4--4-4--4---------------2-2----------------------------------|

Guitar 2
e|-------------------------------------------------------------------------|
B|---1------1-1---2-4\0----------0-0---------------------------------------|
G|-----------------------------------3-1---1h3-----------------------------|
D|---------------------------------------4---------------------------------|
A|-------------------------------------------------------------------------|
E|-------------------------------------------------------------------------|
Tap to rate this tab
# A B C D E F G H I J K L M N O P Q R S T U V W X Y Z