Song name
# A B C D E F G H I J K L M N O P Q R S T U V W X Y Z

Porcelain - Why Cant We tab

    Intro 1
-------------------------
-------------------------
------------9-9-7-7------
--------7-7---------9-9-- X3
-------------------------
-------------------------
-------------------------

-------------------------
-------------------------
------------9-9-7--------
--------7-7--------------
-------------------------
-------------------------
     Intro 2
--------------------------
--------------------------
---------7-7--5-5--------- 
----5-5--7-7--5-5--7-7---- X3
----5-5--5-5--3-3--7-7----
----3-3------------5-5----

---------------------------
---------------------------
---------7-7--5-5----------
----5-5--7-7--5-5----------
----5-5--5-5--3-3----------
----3-3--------------------
     Chorus
-------------------------------
-------------------------------
----99999----------66666-------
----9999999999777776666699999-- x2
----7777799999777774444499999--
---------7777755555-----77777--
    x   xx   xx   xx   xx   x

*REPEAT INTRO 2*
*REPEAT CHORUS TWICE*

Tap to rate this tab
# A B C D E F G H I J K L M N O P Q R S T U V W X Y Z