Song name
# A B C D E F G H I J K L M N O P Q R S T U V W X Y Z

Porcupine Tree - The Creator Has A Mastertape tab

 i heard this another great song of porcupine tree and i have noticed that there
no single tab for it... so i decided to tab it myself...
done that by ears only....
enjoy!!!

tuning:  standard   [E A D G B e]



intro [distorted]- play twice

e|---------------------------|
B|---------10----9-----------|
G|------------9-----8--7-----|
D|---------------------------|
A|--0------------------------|
E|---------------------------|

now the bass comes in... i believe its:
G|--------------------|                        G|---------7-|--------------|
D|--------------------|    or it's variations  D|-66--77----|-----------12-|
A|---------------5----|                        A|-----------|-11-11-12-12--|
E|---4-4---5-5--------|                        E|-----------|--------------|
I dont have a bass guitar at home so i dont know what sounds better.. 



anyway.. now comes the scratchy noise..

just move your pick up and down the [A] and [D] strings..this should work nice....



[1:15]
first note [10] pick and then turn guitar volume up...
listen to song to understand where comes each note!!!
e|--------------------------------------|
B|---10~~~---9~~~------10~~~--9~~~------|
G|--------------------------------------|
D|--------------------------------------|
A|--------------------------------------|
E|--------------------------------------|

[1:38]

e|----------------------|      \
B|----------------------|       \
G|---2-2-2--------------|   *4   \
D|---2-2-2----/7--/6----|         \
A|---0-0-0----/5--/4----|          \
E|----------------------|           \
                                     \
e|-----------------------|             *2
B|-----------------------|           /
G|---5-5-5---------------|   *4     /
D|---5-5-5----/11-/10----|         /
A|---3-3-3----/9--/8-----|        / 
E|-----------------------|       /

ending

e|----------------------|
B|----------------------|
G|--7-7-7---------------|   
D|--7-7-7--6-6-6--7-----|
A|--5-5-5--6-6-6--7-----|
E|---------4-4-4--5-----|

[2:29]

e|-------------|
B|-------------|
G|-------------|   *16
D|-------------|
A|---/5--/4----|
E|-------------|

[2:52]

e|----------------------|      \
B|----------------------|       \
G|---2-2-2--------------|   *4   \
D|---2-2-2----/7--/6----|         \
A|---0-0-0----/5--/4----|          \
E|----------------------|           \
                                     \
e|-----------------------|             *2
B|-----------------------|           /
G|---5-5-5---------------|   *4     /
D|---5-5-5----/11-/10----|         /
A|---3-3-3----/9--/8-----|        / 
E|-----------------------|       /

ending

e|----------------------|
B|----------------------|
G|--7-7-7---------------|   
D|--7-7-7--6-6-6--7-----|
A|--5-5-5--6-6-6--7-----|
E|---------4-4-4--5-----|

this delay is the fifth note in [E] string....

[3:32]

e|---------------------------|
B|------10~-------9----------|   *6
G|------------9-----8--7-----|
D|---------------------------|
A|--0------------------------|
E|---------------------------|



the ending of the song contains these two riffs that continue till the end... you
can hear it by yourself...

[4:16]

e|----------------------|      
B|----------------------|       
G|---2-2-2--------------|  
D|---2-2-2----/7--/6----|         
A|---0-0-0----/5--/4----|          
E|----------------------|

e|----------------------|
B|----------------------|
G|-----------7-6--------|
D|---7-7-7---7-6--------|
A|---7-7-7---5-4--------|
E|---5-5-5--------------|



hope you liked it.... tabbed from hearing only....
Tap to rate this tab
# A B C D E F G H I J K L M N O P Q R S T U V W X Y Z