Song name
# A B C D E F G H I J K L M N O P Q R S T U V W X Y Z

Porcupine Tree - Slave Called Shiver tab

Help us improve GuitareTab! Take a short survey!
-------------------------------------------------------------------------------
			     Slave Called Shiver - Porcupine Tree
-------------------------------------------------------------------------------
Tabbed by: crimsoid
Email: crimsoid@wp.pl

Tabbed by listening to the live version from Warszawa album (but it's very similar with studio
version though).


 Main Bass Riff
G----------------------------------------------------------------------------|
D----------------------5--5--------------------------------------------------|
A--------5h7---5--7-------------4----3---------------------------------------|
E----0-----------------------5----5------------------------------------------|

Piano chords
e|---------------------------------------------------------------------------|
B|-------9--------8-------9--------------------------------------------------|
G|-----9--------9-------9----------------------------------------------------|
D|---------------------------------------------------------------------------|
A|---7--------7-------7------------------------------------------------------|
E|---------------------------------------------------------------------------|

 Guitar Chords ('mother i need her..')
e|---------------------------------------------------------------------------|
B|---------------------------------------------------------------------------|
G|---9---7---5---------------------------------------------------------------|
D|---9---7---5---------------------------------------------------------------|
A|---7---5---3---------------------------------------------------------------|
E|---------------------------------------------------------------------------|


 Bass ('mother i need her..')
G----------------------------------------------------------------------------|
D----------------------------------------------------------------------------|
A----------7--------------------5----------------------3---------------------|
E----------------------------------------------------------------------------|

Guitar Riffs
e|---------------------------------------------------------------------------|
B|---------------------------------------------------------------------------|
G|----9/12\9----(7)/9\7\6\5--------------------------------------------------|
D|---------------------------------------------------------------------------|
A|----7/10\7----(5)/7\5\4\3--------------------------------------------------|
E|---------------------------------------------------------------------------|

Guitar Riff
E----------------------------------------------------------------------------|
B----------------------------------------------------------------------------|
G----------------------------------------------------------------------------|
D----------------------5--5--------------------------------------------------|
A--------5h7---5--7-------------4----3---------------------------------------|
E----0-----------------------5----5------------------------------------------|

Fin!

crimsoid 26.08.08
Related for Slave Called Shiver tab