Song name
# A B C D E F G H I J K L M N O P Q R S T U V W X Y Z

Porcupine Tree - Orchidia tab

----------------------------------------------------------------------------
			 Orchidia - Porcupine Tree
----------------------------------------------------------------------------
This is the intro/verse and chorus.

Intro/Verse
E---------------------------------------------------------------------------|
B---------------------------------------------------------------------------|
G---------------------------------------------------------------------------|
D---------------------------------------------------------------------------|
A------------4-4---------------4-4---------------4-4---------------4-4-5-5--|
E--0-0-3-0-3-----3-3-0-0-3-0-3-----3-3-0-0-3-0-3-----3-3-0-0-3-0-3----------|
x5

Chorus
E---------------------------------------------------------------------------|
B---------------------------------------------------------------------------|
G--9-9-9-9-9-9-9-9---10-10-10-10-10-10-10-10---6-6-6-6-6-6-6-6--------------|
D--9-9-9-9-9-9-9-9---10-10-10-10-10-10-10-10---6-6-6-6-6-6-6-6--------------|
A--7-7-7-7-7-7-7-7---8--8--8--8--8--8--8--8----4-4-4-4-4-4-4-4--------------|
E---------------------------------------------------------------------------|

Alternate ending (last time)
E---------------------------------------------------------------------------|
B---------------------------------------------------------------------------|
G--9-9-9-9-9-9-9-9---10-10-10-10-10-10-10-10---6-6---5-5--------------------|
D--9-9-9-9-9-9-9-9---10-10-10-10-10-10-10-10---6-6---5-5--------------------|
A--7-7-7-7-7-7-7-7---8--8--8--8--8--8--8--8----4-4---3-3--------------------|
E---------------------------------------------------------------------------|
Tap to rate this tab
# A B C D E F G H I J K L M N O P Q R S T U V W X Y Z