Song name
# A B C D E F G H I J K L M N O P Q R S T U V W X Y Z

Porcupine Tree - I Drive The Hearse tab

XIV - I Drive The Hearse
Porcupine Tree
From the 2009 album The Incident

Tuning: Standard
Capo:   7th Fret

Tab is relative to the capo. Criticism is welcome, if something is wrong I'll try to fix it.

Riff A
e|---------------------------------|------------------------0---------------|
B|-----0-----0-----0-----0---------|------0-------------0-----0-------------|
G|---0-----0-----0-----0-----------|----0---0---------0---0-----0-----------|      
D|-5-----4-----2-----4-----5---0---|-0h2------2-2h4---------------4---------|
A|---------------------------------|----------------------------------------|
E|---------------------------------|----------------------------------------| 
                                                                                          
e|---------------------------------|---------0---------------0--------------|
B|-----0-----0-----0-----0---------|-----0-----0---------0-----0------------|
G|---0-----0-----0-----0-----------|---0---0-----0-----0---0-----0----------|
D|-5-----4-----2-----4-----5---0---|-------------------------------4--------|
A|---------------------------------|-3-------------3------------------------|
E|---------------------------------|----------------------------------------|


Riff B
  Em   Cmaj7    G   Em    Cmaj7    G     C  Cmaj7
e|-0----0-------3----0-----0-------3-----0----0-----------------------------|
B|-0----0-------0----0-----0-------0-----1----0----------------------------o|
G|-0----0-------0----0-----0-------0-----0----0-----------------------------|
D|-2----2-------0----2-----2-------0-----2----2-----------------------------|
A|-2----3-------2----2-----3-------2-----3----3----------------------------o|
E|-0------------3----0-------------3----------------------------------------|


Riff A
Riff B


Riff C
  Em   Cmaj7  Em  Cadd9  C 
e|-0----0-----0----0-----0-----------------------|
B|-0----0-----0----3-----1----------------------o|
G|-0----0-----0----0-----0-----------------------| x4
D|-2----2-----2----2-----2-----------------------|
A|-2----3-----2----3-----3----------------------o|
E|-0----------0----------------------------------|


Play each chord once on this one

When   I'm   Down  I   Drive    The....
e|-0----0-----0----0-----0-------0----------------|
B|-0----0-----0----3-----1-------0----------------|
G|-0----0-----0----0-----0-------0----------------| 
D|-2----2-----2----2-----2-------2----------------|
A|-2----3-----2----3-----3-------3----------------|
E|-0----0-----0-----------------------------------|



Riff D
 ...Hearse
e|---------0-----------0-----------0-----------0----------------------------|
B|-----0-----0-----0-----0-----3-----3-----3-----3--------------------------|
G|---0---0-------0---0-------0---0-------0---0------------------------------|
D|-4-----------4-----------5-----------5------------------------------------|
A|--------------------------------------------------------------------------|
E|--------------------------------------------------------------------------|


Riff A
Riff B
Riff C during the solo


When   I'm   Down  I   Drive    The....
e|-0----0-----0----0-----0-------0----------------|
B|-0----0-----0----3-----1-------0----------------|
G|-0----0-----0----0-----0-------0----------------| 
D|-2----2-----2----2-----2-------2----------------|
A|-2----3-----2----3-----3-------3----------------|
E|-0----0-----0-----------------------------------|



Riff D
 ...Hearse
e|---------0-----------0-----------0-----------0----------------------------|
B|-----0-----0-----0-----0-----3-----3-----3-----3--------------------------|
G|---0---0-------0---0-------0---0-------0---0------------------------------|
D|-4-----------4-----------5-----------5------------------------------------|
A|--------------------------------------------------------------------------|
E|--------------------------------------------------------------------------|

Repeat riff D fading out
Tap to rate this tab
 
# A B C D E F G H I J K L M N O P Q R S T U V W X Y Z