Song name
# A B C D E F G H I J K L M N O P Q R S T U V W X Y Z

Porcupine Tree - The Seance tab

     E  E  E  E  E  E  E  E     E  E  E  E  E  E  E  E   
E||--------------------------|--------------------------|
B||--------------------------|--------------------------|
G||--7--------7--------7-----|--7--------7--5--------5--|
D||-----7--------7-----------|-----7-----------7--------|
A||--5-----5--------5-----5--|--6-----6-----------6-----|
E||--------------------------|--------------------------|


  E  E  E  E  E  E  E  E     E  E  E  E  E  E  E  E   8x
--------------------------|---------------------------||
--------------------------|---------------------------||
--5--------5--------5-----|--5--------5--3--------3--*||
-----3--------3-----------|-----3-----------3--------*||
--5-----5--------5-----5--|--4-----4-----------4------||
--------------------------|---------------------------||
Tap to rate this tab
# A B C D E F G H I J K L M N O P Q R S T U V W X Y Z