Song name
# A B C D E F G H I J K L M N O P Q R S T U V W X Y Z

Porcupine Tree - Drawing The Line tab

Artist: Porcupine Tree

Song: Drawing the Line

Album: The Incident                                               Tabbed by Robert Strand 

A great song on a great album by a great band! 
Have fun playing it.



 Standard tuning 

Chorus 1

  [Guitar I]
E|--------------------------------------------------------------|
B|--------------------------------------------------------------|
G|---5----------------------------------------------------------| 
D|---5----------------------------------------------------------|
A|---3----------------------------------------------------------|
E|--------------------------------------------------------------|

 [Guitar I]
|--------------------------------------------------------------|
|--------------------------------------------------------------|
|--------------------------------------------------------------|
|---5------------0---------------------------------------------|
|---5------------2---------------------------------------------|
|---3------------2---------------------------------------------| 

 [Guitar I]
|--------------------------------------------------------------|
|--------------------------------------------------------------|
|---5----------------------------------------------------------| 
|---5----------------------------------------------------------|
|---3----------------------------------------------------------|
|--------------------------------------------------------------|

 [Guitar I]
|--------------------------------------------------------------|
|--------------------------------------------------------------|
|--------------------------------------------------------------|
|---5------------0---------------------------------------------|
|---5------------2---------------------------------------------|
|---3------------2---------------------------------------------|
  [Guitar II]                                                     }
E|---10---10---10---10---10---10--------------------------------|
B|--------------------------------------------------------------|
G|--------------------------------------------------------------| 
D|--------------------------------------------------------------|
A|--------------------------------------------------------------|
E|--------------------------------------------------------------|

 [Guitar I]
|--------------------------------------------------------------|
|--------------------------------------------------------------|
|---5----------------------------------------------------------|
|---5----------------------------------------------------------|
|---3----------------------------------------------------------|
|--------------------------------------------------------------|
 [Guitar II]                                                     }
|----12---12---12---12---12---12---12---12---12---12-----------|
|--------------------------------------------------------------|
|--------------------------------------------------------------|
|--------------------------------------------------------------|
|--------------------------------------------------------------|
|--------------------------------------------------------------|

 [Guitar I]
|--------------------------------------------------------------|
|--------------------------------------------------------------|
|--------------------------------------------------------------|
|---5------------0---------------------------------------------|
|---5------------2---------------------------------------------|
|---3------------2---------------------------------------------|
 [Guitar II]                                                     }
|---10---10---10---10---10---10---12---------------------------|
|--------------------------------------------------------------|
|--------------------------------------------------------------|
|--------------------------------------------------------------|
|--------------------------------------------------------------|
|--------------------------------------------------------------|


Interlude


|-7b8r7----------------7---------------------------------------|
|-------8------------8----8---8-8p6-6----6/8-8-----------------|
|---------7--7--7/9---------9------------------9--------9--9-9-|
|--------------------------------------------------------------|
|--------------------------------------------------------------|
|--------------------------------------------------------------|
                                                               hold
                                                              ------------------->
|7b8r7-------------------7--------5--8------------------7----12|
|------8----------8-------------6--------9-----------------10--|
|--------7--7-7/9----9-----9-7-------------10--10\9---9--------|
|--------------------------------------------------------------|
|--------------------------------------------------------------|
|--------------------------------------------------------------|

Chorus 2

 [Guitar I]
|--------------------------------------------------------------|
|--------------------------------------------------------------|
|---5----------------------------------------------------------|
|---5----------------------------------------------------------|
|---3----------------------------------------------------------|
|--------------------------------------------------------------|

 [Guitar I]
|--------------------------------------------------------------|
|--------------------------------------------------------------|
|--------------------------------------------------------------|
|---5------------0---------------------------------------------|
|---5------------2---------------------------------------------|
|---3------------2---------------------------------------------|

 [Guitar I]
|--------------------------------------------------------------|
|--------------------------------------------------------------|
|---5----------------------------------------------------------|
|---5----------------------------------------------------------|
|---3----------------------------------------------------------|
|--------------------------------------------------------------|

 [Guitar I]
|--------------------------------------------------------------|
|--------------------------------------------------------------|
|--------------------------------------------------------------|
|---5------------0---------------------------------------------|
|---5------------2---------------------------------------------|
|---3------------2---------------------------------------------|
 [Guitar II]                                                     }
|---10---10---10---10---10---10--------------------------------|
|--------------------------------------------------------------|
|--------------------------------------------------------------| 
|--------------------------------------------------------------|
|--------------------------------------------------------------|
|--------------------------------------------------------------|

 [Guitar I]                                          _________________
|--------------------------------------------------------------|      |        
|--------------------------------------------------------------|      |
|---5----------------------------------------------------------|      |
|---5----------------------------------------------------------|      |
|---3----------------------------------------------------------|      |
|--------------------------------------------------------------|      |
 [Guitar II]                                                     }    |
|----12---12---12---12---12---12---12---12---12---12-----------|      |
|--------------------------------------------------------------|      |
|--------------------------------------------------------------|      |
|--------------------------------------------------------------|      |
|--------------------------------------------------------------|      |
|--------------------------------------------------------------|      |
                                                                      |
 [Guitar I]                                                           |------- x3
|--------------------------------------------------------------|      |
|--------------------------------------------------------------|      |
|--------------------------------------------------------------|      |        
|---5------------0---------------------------------------------|      |
|---5------------2---------------------------------------------|      |
|---3------------2---------------------------------------------|      |
 [Guitar II]                                                     }    |
|---10---10---10---10---10---10---10---------------------------|      |
|--------------------------------------------------------------|      |
|--------------------------------------------------------------|      |
|--------------------------------------------------------------|      |
|--------------------------------------------------------------|      |
|--------------------------------------------------------------|      |
                                                     _________________|

Final solo


|-7b8r7--------------------------------------------------------|
|-------8---------------8-----8----------8-9----9-9------------|
|---------7----7-7/9------9-----9-9/10--------------9---9-9\---|
|--------------------------------------------------------------|
|--------------------------------------------------------------|
|--------------------------------------------------------------|


|-7b8r7-------------------7-----------------8------------------|
|-------8---------------8-----8----------10----9---------------|
|---------7----7-7/9------------9-7---10---------10-9---9-9\---|
|--------------------------------------------------------------|
|--------------------------------------------------------------|
|--------------------------------------------------------------|


|--------------------------------------------------------------|
|--------------------------------------------------------------|
|-9-9-9-9-9-9-9-9-9-9-9-9-9-9-9--7-7-7/9--9-9-9-9-9-9-9-9-9-9-9|
|--------------------------------------------------------------|
|--------------------------------------------------------------|
|--------------------------------------------------------------|


|--------------------------------------------------------------|
|--------------------------------------------------------------|
|-9-9-9-10--10-10-10-10-10-10-8--8-----------------------------|
|----------------------------------11-11-10-10-8-8-7-7-7-7-7-7-|
|--------------------------------------------------------------|
|--------------------------------------------------------------|


|--------------------------------------------------------------|
|--------------8-8-8--8-8-8-8-8-8-8-8-8-8-8-8-8-8-10--10-10-10-|
|--------------------------------------------------------------|
|7-7-7-7-7-7-7-------------------------------------------------|
|--------------------------------------------------------------|
|--------------------------------------------------------------|


|--------------------------------------------------------------|
|10-10-10-10-10-10-10-10-10-10-10-11--11-11-11-11-11-11-9--9-7-|
|--------------------------------------------------------------|
|--------------------------------------------------------------|
|--------------------------------------------------------------|
|--------------------------------------------------------------|
             hold
             -------------------------->
|--------------------------------------------------------------|
|7-------------------------------------------------------------|
|--10-10-8-9---------------------------------------------------|
|--------------------------------------------------------------|
|--------------------------------------------------------------|
|--------------------------------------------------------------|
Tap to rate this tab
# A B C D E F G H I J K L M N O P Q R S T U V W X Y Z