Song name
# A B C D E F G H I J K L M N O P Q R S T U V W X Y Z

Porcupine Tree - The Incident tab

Song: The Incident
Album: The Incident (CD1)
Year: 2009
Band: Porcupine Tree
Music and Lyrics: Steven Wilson
Tab: Penn100

This is how the song is played live; Steven Wilson uses a baritone guitar
tuned in drop-A (or possibly A-standard, only the lowest string is used).
John Wesley plays with a guitar tuned in drop-D, but you can use
standard tuning, since the low D isn't used.

[Fade in from Drawing the Line]

Drum machine, keyboard, etc.

Enter Wilson, distorted guitar:
 B|---------------------|-----------------------------------------|
#F|---------------------|-----------------------------------------|
 D|---------------------|-----------------------------------------|
 A|---------------------|-----------------------------------------|
 E|---------------------|-----------------------------------------|
 A|--1----0--0--0---0---|--1----0--0--0---0---3-h-4--0---3-h-4~---|

 B|---------------------|---------------------------------------------|
#F|---------------------|---------------------------------------------|
 D|---------------------|---------------------------------------------|
 A|---------------------|---------------------------------------------|
 E|---------------------|---------------------------------------------|
 A|--1----0--0--0---0---|--1----0--0--0---0---11-h-12--0---11-h-12~---|

Enter Wesley, overdriven guitar:

E|------6-------------|-------6-----------|
B|----------5~~~~-----|-----------5~~~~---|
G|---6----------------|----4--------------|
D|--------------------|-------------------|
A|--------------------|-------------------|
D|--------------------|-------------------|

E|-------6-------------|
B|-----------5~~~~-----|
G|-(4)6----------------|
D|---------------------|
A|---------------------|
D|---------------------|

E|-------9-------------|
B|-----------8~~~~-----|
G|----6----------------|
D|---------------------|
A|---------------------|
D|---------------------|

[CHORUS]
(I... want to be loved...)
Wesley:

E|--------------5~~~~---|---------------8~~~~----|
B|--------2-------------|---------5--------------|
G|---2------------------|----5-------------------|
D|----------------------|------------------------|
A|----------------------|------------------------|
D|----------------------|------------------------|

E|--------------8~~~~---|---------------6~~~~----|
B|--------6-------------|---------4--------------|
G|---5------------------|----3-------------------|
D|----------------------|------------------------|
A|----------------------|------------------------|
D|----------------------|------------------------|

[Solo, which I haven't tabbed yet]

[Fade into Your Unpleasant Family]

Enjoy.
Tap to rate this tab
# A B C D E F G H I J K L M N O P Q R S T U V W X Y Z