Song name
# A B C D E F G H I J K L M N O P Q R S T U V W X Y Z

Porcupine Tree - Remember Me Lover tab

Pretty Sure its in Standard.
First tab, yay. If someone figures out the lead in the Prechorus and Chorus, i will be 
grateful.
This should get you through the basics of the song tho:


Verse:

e|---------------------------------------|
B|---------------------------------------|
G|---------------------------------------|
D|------7----5------4---4---4h5----------|
A|---0-----0----0-5---5---5--------------|
E|---------------------------------------|

e|---------------------------------------|
B|---------------------------------------|
G|---------------------------------------|
D|------7----5------4---4---4-s-2--------|
A|---0-----0----0-5---5---5--------------|
E|---------------------------------------|

This is the little fill thing just before the prechorus, sounds like two strings, but 
is all ive got so far.

e|--------------|
B|--------------|
G|--------------|
D|--9--7--7s11--|
A|--------------|
E|--------------|

Bridge (or interlude or prechorus, or whatever you want to call it) :

Dunno about the lead part
But chords are:

   A      C      E?       B

Chorus:

Again I havent figured out the lead but chords are just

   A     D     A     D

Lyrics:

Verse:

I didn't want to feel like a slave to your mood swings
And I'm not saying anything I wouldn't say behind your back
And all this shit could have happened to anyone
All that matters now is how you gonna pick it up to throw it back

Bridge?:

It's so hard to get along
I always know what you're gonna say
This too: I hated you
I wish you'd learn to keep your mouth shut

Verse 2:

I never meant to start anything that I couldn't finish
Now I gotta be the one to turn away, it's time to react
I meant every word that I said, yeah I really did
But you gotta understand that I was sleeping then
So relax

Chorus:

I walked away, now remember me lover
I told you lies, now remember me lover
I took your money, remember me lover
I ruined your life, now remember me lover

Bridge:

It's so hard to get along
I always know what you're gonna say
This too: I hated you
I wish you'd learn to keep your mouth shut

Verse 3:

I've been through this with you about a hundred times
Agree to disagree, start again, with our lives
Then every single morning I wake up and you're still there
But tomorrow you will be alone and that is all you deserve

Chorus:

I walked away, now remember me lover
I told you lies, now remember me lover
I took your money, remember me lover
I ruined your life, now remember me lover

Bridge:

It's so hard to get along
I always know what you're gonna say
This too: I hated you
I wish you'd learn to keep your mouth shut
Tap to rate this tab
# A B C D E F G H I J K L M N O P Q R S T U V W X Y Z