Song name
# A B C D E F G H I J K L M N O P Q R S T U V W X Y Z

Porcupine Tree - The Blind House tab

-----------------------------------------------------------------------------
     THE BLIND HOUSE - Porcupine Tree
-----------------------------------------------------------------------------
Tabbed by: Sludge
Email:

Tuning: Drop D


Intro: Listen to the song to get the strumming
e|--------------------      e|--------------------|
B|--------------------      B|--------7--10-6-----|
G|--------7--10-6-----      G|--------7--10-6-----|
D|-1-1-0--------------      D|-1-1-0--------------|
A|-1-1-0--5--8--4-----      A|-1-1-0--5--8--4-----|
D|-1-1-0--------------x4    D|-1-1-0--------------|x4

Verse: Again, listen to the song for the strumming. This is the progression he plays.
e|-------------------------|
B|-------------------------|
G|-7--7--7--5--5--3--5--3--|
D|-7--7--5--5--3--3--3--3--|
A|-5--5--6--6--5--5--4--4--|
D|-------------------------|

Then back to the first intro riff.

Chorus: Listen to the song for the strumming
e|-----------------------------------------|
B|-----------------------------------------|
G|-----------------------------------------|
D|-5--1--5--1--8--1--5--1--5--1--8--1--0---|
A|-5--1--5--1--8--1--5--1--5--1--8--1--0---|
D|-5--1--5--1--8--1--5--1--5--1--8--1--0---|

Outro: Same as intro, listen to song for strumming.

This is how Steven Wilson appears to be playing it when Porcupine Tree performs, if not 
pretty damn close.


| /  slide up
| \  slide down
| h  hammer-on
| p  pull-off
| ~  vibrato
| +  harmonic
| x  Mute note
=============================================================================
Tap to rate this tab
# A B C D E F G H I J K L M N O P Q R S T U V W X Y Z