Song name
# A B C D E F G H I J K L M N O P Q R S T U V W X Y Z

Porcupine Tree - The Blind House tab

This is the 100% right Version made by me. I'm 15 and I'm a huge PT Fan. I just love them!
Album: The Incident
Tabbed by PCB94
Tuning: Drop D (DADGBE)


Intro: Distortion - 5/4
e|-------|
B|-------|
G|-------|
D|-1--1--|
A|-1--1--|
D|-1--1--|

e|--------------------------------------------|
B|--------------------------------------------|
G|---7-7-7-7-7-10-10-10-10-6-6-6-6-6-6--------|
D|-0------------------------------------1--1--| x4
A|-0-5-5-5-5-5-8--8--8--8--4-4-4-4-4-4--1--1--|
D|-0------------------------------------1--1--|

e|--------------------------------------------|
B|---7-7-7-7-7-10-10-10-10-6-6-6-6-6-6--------|
G|---7-7-7-7-7-10-10-10-10-6-6-6-6-6-6--------|
D|-0------------------------------------1--1--| x4
A|-0-5-5-5-5-5-8--8--8--8--4-4-4-4-4-4--1--1--|
D|-0------------------------------------1--1--|
Verse 1: Clean, A Bit Flanger
“If you wanna stay...”
e|---------------------------------------------------------------------------|
B|---------------------------------------------------------------------------|
G|-7---7---7-7---7-7-7---7---7-7---7-7-7-7---7---7-7---7-7-5---5---5-5---5-5-|
D|-7---7---7-7---7-7-7---7---7-7---7-7-7-7---7---7-7---7-7-7---7---7-7---7-7-|
A|-5---5---5-5---5-5-5---5---5-5---5-5-5-6---6---6-6---6-6-6---6---6-6---6-6-|
D|---------------------------------------------------------------------------|

e|-----------------------------------------------------------------------------|
B|-----------------------------------------------------------------------------|
G|-5---5---5-5---5-5-3---3---3-3---3-3-5---5---5-5---5-5-3---3---3-3---3-3-----|
D|-3---3---3-3---3-3-3---3---3-3---3-3-5---5---5-5---5-5-5---3---3-3---3-3-----|
A|-5---5---5-5---5-5-5---5---5-5---5-5-4---4---4-4---4-4-4---4---4-4---4-4-----|
D|-----------------------------------------------------------------------------|
e|-----------------------------------------------------------------------------|
B|-----------------------------------------------------------------------------|
G|-7---7---7-7---7-7-7---7---7-7---7-7-7-7---7---7-7---7-7-5---5---5-5---5-5---|
D|-7---7---7-7---7-7-7---7---7-7---7-7-7-7---7---7-7---7-7-7---7---7-7---7-7---|
A|-5---5---5-5---5-5-5---5---5-5---5-5-5-6---6---6-6---6-6-6---6---6-6---6-6---|
D|-----------------------------------------------------------------------------|

e|-------------------------------------------------------------------------|
B|-------------------------------------------------------------------------|
G|-5---5---5-5---5-5-3---3---3-3---3-3-5---5---5-5---5-5-3---3---3-3---3-3-|
D|-3---3---3-3---3-3-3---3---3-3---3-3-5---5---5-5---5-5-3---3---3-3---3-3-| x2
A|-5---5---5-5---5-5-5---5---5-5---5-5-4---4---4-4---4-4-4---4---4-4---4-4-|
D|-------------------------------------------------------------------------|

Break: Distorted
e|--------------------------------------------|
B|---7-7-7-7-7-10-10-10-10-6-6-6-6-6-6--------|
G|---7-7-7-7-7-10-10-10-10-6-6-6-6-6-6--------|
D|-0------------------------------------1--1--| x4
A|-0-5-5-5-5-5-8--8--8--8--4-4-4-4-4-4--1--1--|
D|-0------------------------------------1--1--|

Verse 2: Clean, A Bit Flanger - It's just like Verse 1 Just with a permanent strumming 
the background i haven't figured out yet. Will try to update it as far as i can.
“Faith is in your soul..”

e|---------------------------------------------------------------------------|
B|---------------------------------------------------------------------------|
G|-7---7---7-7---7-7-7---7---7-7---7-7-7-7---7---7-7---7-7-5---5---5-5---5-5-|
D|-7---7---7-7---7-7-7---7---7-7---7-7-7-7---7---7-7---7-7-7---7---7-7---7-7-|
A|-5---5---5-5---5-5-5---5---5-5---5-5-5-6---6---6-6---6-6-6---6---6-6---6-6-|
D|---------------------------------------------------------------------------|

e|-----------------------------------------------------------------------------|
B|-----------------------------------------------------------------------------|
G|-5---5---5-5---5-5-3---3---3-3---3-3-5---5---5-5---5-5-3---3---3-3---3-3-----|
D|-3---3---3-3---3-3-3---3---3-3---3-3-5---5---5-5---5-5-5---3---3-3---3-3-----|
A|-5---5---5-5---5-5-5---5---5-5---5-5-4---4---4-4---4-4-4---4---4-4---4-4-----|
D|-----------------------------------------------------------------------------|
e|-----------------------------------------------------------------------------|
B|-----------------------------------------------------------------------------|
G|-7---7---7-7---7-7-7---7---7-7---7-7-7-7---7---7-7---7-7-5---5---5-5---5-5---|
D|-7---7---7-7---7-7-7---7---7-7---7-7-7-7---7---7-7---7-7-7---7---7-7---7-7---|
A|-5---5---5-5---5-5-5---5---5-5---5-5-5-6---6---6-6---6-6-6---6---6-6---6-6---|
D|-----------------------------------------------------------------------------|

e|-------------------------------------------------------------------------|
B|-------------------------------------------------------------------------|
G|-5---5---5-5---5-5-3---3---3-3---3-3-5---5---5-5---5-5-3---3---3-3---3-3-|
D|-3---3---3-3---3-3-3---3---3-3---3-3-5---5---5-5---5-5-3---3---3-3---3-3-| x2
A|-5---5---5-5---5-5-5---5---5-5---5-5-4---4---4-4---4-4-4---4---4-4---4-4-|
D|-------------------------------------------------------------------------|

Chorus: Distortion , Time Changing from 5/4 to 4/4
          "Free Love..."
e|---------------------------------------|
B|---------------------------------------|
G|---------------------------------------|
D|-5-5-5-5-5----1-1-1-1-1---1-1---1-1--1-| x2
A|-5-5-5-5-5----1-1-1-1-1---1-1---1-1--1-|
D|-5-5-5-5-5----1-1-1-1-1---1-1---1-1--1-|

e|---------------------------------------------------------|
B|---------------------------------------------------------|
G|-10---10--10101010-10-101015----15---15151515--15--15-15-|
D|-8----8---8-8-8-8--8--8-8-13----13---13131313--13--13-13-|
A|-8----8---8-8-8-8--8--8-8-13----13---13131313--13--13-13-|
D|-8----8---8-8-8-8--8--8-8-13----13---13131313--13--13-13-|

e|---------------------------------------|
B|---------------------------------------|
G|---------------------------------------|
D|-5-5-5-5-5----1-1-1-1-1---1-1---1-1--1-| x2
A|-5-5-5-5-5----1-1-1-1-1---1-1---1-1--1-|
D|-5-5-5-5-5----1-1-1-1-1---1-1---1-1--1-|

e|---------------------------------------------------------|
B|---------------------------------------------------------|
G|-10---10--10101010-10-10101515---15151515----------------|
D|-8----8---8-8-8-8--8--8-8-1313---13131313----------------|
A|-8----8---8-8-8-8--8--8-8-1313---13131313-(let-ring)-----|
D|-8----8---8-8-8-8--8--8-8-1313---13131314----------------|

e|-------------------------------------------------|
B|-10--10-1010h11----11----10--10-1010h11----11----|
G|-10--10-1010-------10----10--10-1010-------10----|
D|-8---8--8-8--------8-----8---8--8-8--------8-----|
A|-8---8--8-8--------8-----8---8--8-8--------8-----|
D|-8---8--8-8--------8-----8---8--8-8--------8-----|


Verse 3: Clean, A Bit Flanger - It's just like Verse 2 and 3
“Pray and Violate...”
e|---------------------------------------------------------------------------|
B|---------------------------------------------------------------------------|
G|-7---7---7-7---7-7-7---7---7-7---7-7-7-7---7---7-7---7-7-5---5---5-5---5-5-|
D|-7---7---7-7---7-7-7---7---7-7---7-7-7-7---7---7-7---7-7-7---7---7-7---7-7-|
A|-5---5---5-5---5-5-5---5---5-5---5-5-5-6---6---6-6---6-6-6---6---6-6---6-6-|
D|---------------------------------------------------------------------------|

e|-----------------------------------------------------------------------------|
B|-----------------------------------------------------------------------------|
G|-5---5---5-5---5-5-3---3---3-3---3-3-5---5---5-5---5-5-3---3---3-3---3-3-----|
D|-3---3---3-3---3-3-3---3---3-3---3-3-5---5---5-5---5-5-5---3---3-3---3-3-----|
A|-5---5---5-5---5-5-5---5---5-5---5-5-4---4---4-4---4-4-4---4---4-4---4-4-----|
D|-----------------------------------------------------------------------------|
e|-----------------------------------------------------------------------------|
B|-----------------------------------------------------------------------------|
G|-7---7---7-7---7-7-7---7---7-7---7-7-7-7---7---7-7---7-7-5---5---5-5---5-5---|
D|-7---7---7-7---7-7-7---7---7-7---7-7-7-7---7---7-7---7-7-7---7---7-7---7-7---|
A|-5---5---5-5---5-5-5---5---5-5---5-5-5-6---6---6-6---6-6-6---6---6-6---6-6---|
D|-----------------------------------------------------------------------------|

e|-------------------------------------------------------------------------|
B|-------------------------------------------------------------------------|
G|-5---5---5-5---5-5-3---3---3-3---3-3-5---5---5-5---5-5-3---3---3-3---3-3-|
D|-3---3---3-3---3-3-3---3---3-3---3-3-5---5---5-5---5-5-3---3---3-3---3-3-| x2
A|-5---5---5-5---5-5-5---5---5-5---5-5-4---4---4-4---4-4-4---4---4-4---4-4-|
D|-------------------------------------------------------------------------|

Chorus: Distortion , Time Changing from 5/4 to 4/4
          "Free Love..."
e|---------------------------------------|
B|---------------------------------------|
G|---------------------------------------|
D|-5-5-5-5-5----1-1-1-1-1---1-1---1-1--1-| x2
A|-5-5-5-5-5----1-1-1-1-1---1-1---1-1--1-|
D|-5-5-5-5-5----1-1-1-1-1---1-1---1-1--1-|

e|---------------------------------------------------------|
B|---------------------------------------------------------|
G|-10---10--10101010-10-101015----15---15151515--15--15-15-|
D|-8----8---8-8-8-8--8--8-8-13----13---13131313--13--13-13-|
A|-8----8---8-8-8-8--8--8-8-13----13---13131313--13--13-13-|
D|-8----8---8-8-8-8--8--8-8-13----13---13131313--13--13-13-|

e|---------------------------------------|
B|---------------------------------------|
G|---------------------------------------|
D|-5-5-5-5-5----1-1-1-1-1---1-1---1-1--1-| x2
A|-5-5-5-5-5----1-1-1-1-1---1-1---1-1--1-|
D|-5-5-5-5-5----1-1-1-1-1---1-1---1-1--1-|

e|---------------------------------------------------------|
B|---------------------------------------------------------|
G|-10---10--10101010-10-10101515---15151515----------------|
D|-8----8---8-8-8-8--8--8-8-1313---13131313----------------|
A|-8----8---8-8-8-8--8--8-8-1313---13131313-(let-ring)-----|
D|-8----8---8-8-8-8--8--8-8-1313---13131314----------------|

e|-------------------------------------------------|
B|-10--10-1010h11----11----10--10-1010h11----11----|
G|-10--10-1010-------10----10--10-1010-------10----|
D|-8---8--8-8--------8-----8---8--8-8--------8-----|
A|-8---8--8-8--------8-----8---8--8-8--------8-----|
D|-8---8--8-8--------8-----8---8--8-8--------8-----|

Pre-Outro: Clean
e|----------------------------------------------------------|
B|----------------------------------------------------------|
G|----------------------------------------------------------|
D|-7--------\(1)-3------------------------------------------| x8
A|-5--------\(1)-1(let-ring)--------------------------------|
D|-5--------\(1)-1------------------------------------------|

Outro: Distortion
e|-------|
B|-------|
G|-------|
D|-1--1--|
A|-1--1--|
D|-1--1--|

e|-------------------------------|
B|-------------------------------|
G|---------10-\-6----------------|
D|-0-----------------------1--1--| x2
A|-0--------8-\-4----------1--1--|
D|-0-----------------------1--1--|

e|-------------------------------|
B|---------10---6----------------|
G|---------10-\-6----------------|
D|-0-----------------------1--1--| x2
A|-0--------8-\-4----------1--1--|
D|-0-----------------------1--1--|

e|--------------------------------------------|
B|---7-7-7-7-7-10-10-10-10-6-6-6-6-6-6--------|
G|---7-7-7-7-7-10-10-10-10-6-6-6-6-6-6--------|
D|-0------------------------------------1--1--| x4
A|-0-5-5-5-5-5-8--8--8--8--4-4-4-4-4-4--1--1--|
D|-0------------------------------------1--1--|
Tap to rate this tab
 
# A B C D E F G H I J K L M N O P Q R S T U V W X Y Z