Song name
# A B C D E F G H I J K L M N O P Q R S T U V W X Y Z

Porcupine Tree - Circle Of Manias tab

Artist: Porcupine Tree
Song: Circle of Manias
Album: The Incident

Relatively simple song to follow, has four parts.

Quiet part:
PM    x x     x  x      x x     x x x
E|------------------------------------|
B|------------------------------------|
G|------------------------------------|
D|------------------------------------| x8
A|------------2--2--------------2-2-2-|
E|-4-h0-0-3b--0--0----4h0-0-3b--0-0-0-|


Loud part:
E|------------------------------------|
B|------------------------------------|
G|------------------------------------|
D|-6s\2---5---2--2----6\2---5---2-2-2-| x8
A|-6s\2---5---2--2----6\2---5---2-2-2-|
E|-4s\0-0-3---0--0----4\0-0-3---0-0-0-|


Breakdown:
E|------------------------------------|
B|------------------------------------|
G|------------------------------------|
D|-6s\----5s\---x-x-x-x-x-x-x-x-x-x---| x4
A|-6s\----5s\---x-x-x-x-x-x-x-x-x-x---|
E|-4s\--0-3s\---x-x-x-x-x-x-x-x-x-x---|


Heavy Part:
E|------------------------------------|
B|------------------------------------|
G|------------------------------------|
D|-4s\3---3---3-------4-----3---3-----| x2
A|-4s\3---3---3-------4-----3---3-----|
E|-2s\1-1-----1-----1----1------1-----|

E|------------------------------------|
B|------------------------------------|
G|------------------------------------|
D|-8s\7---7---7-------8-----7---7-----| x2
A|-8s\7---7---7-------8-----7---7-----|
E|-6s\5-5-----5-----5----5------5-----|


And ends on:
E|------------------------------------|
B|------------------------------------|
G|------------------------------------|
D|-8-8----7---7-------8--8--7--7------|
A|-8-8----7---7-------8--8--7--7------|
E|-6-6--5-----5-------6--6--5--5------|
Tap to rate this tab
# A B C D E F G H I J K L M N O P Q R S T U V W X Y Z