Song name
# A B C D E F G H I J K L M N O P Q R S T U V W X Y Z

Porcupine Tree - Time Flies tab

Time Flies Tab (Porcupine Tree)

Intro

e-3-3-3-3-x-x-3-3-3-3-x-x-3-3-3-3-x-x-3-3-3-3-x-x-----|
B-1-1-1-1-x-x-1-1-1-1-x-x-1-1-1-1-x-x-1-1-1-1-x-x-----|
G-2-2-2-2-x-x-2-2-2-2-x-x-2-2-2-2-x-x-2-2-2-2-x-x-----|
D-----------------------------------------------------|
A-----------------------------------------------------|
E-----------------------------------------------------|

e-0-0-0-0-x-x-0-0-0-0-x-x-3-3-3-3-x-x-0-0-0-0-0-0-----|
B-1-1-1-1-x-x-1-1-1-1-x-x-1-1-1-1-x-x-1-1-1-1-1-1-----|
G-2-2-2-2-x-x-2-2-2-2-x-x-2-2-2-2-x-x-2-2-2-2-2-2-----|
D-----------------------------------------------------|
A-----------------------------------------------------|
E-----------------------------------------------------|

e-5-5-5-5-x-x-5-5-5-5-x-x-5-5-5-5-x-x-5-5-5-5-x-x-----|
B-6-6-6-6-x-x-6-6-6-6-x-x-6-6-6-6-x-x-6-6-6-6-x-x-----|
G-3-3-3-3-x-x-3-3-3-3-x-x-3-3-3-3-x-x-3-3-3-3-x-x-----|
D-----------------------------------------------------|
A-----------------------------------------------------|
E-----------------------------------------------------|

e-5-5-5-5-x-x-5-5-5-5-x-x-5-5-5-5-x-x-5-5-5-5-5-5-----|
B-6-6-6-6-x-x-6-6-6-6-x-x-6-6-6-6-x-x-6-6-6-6-6-6-----|
G-3-3-3-3-x-x-3-3-3-3-x-x-3-3-3-3-x-x-3-3-3-3-3-3-----|
D-----------------------------------------------------|
A-----------------------------------------------------|
E-----------------------------------------------------|

Play that 4 times, and then,

Chorus:

e-0-0-0-0-x-x-0-0-0-0-x-x-0-0-0-0-x-x-0-0-0-0-x-x-----|
B-1-1-1-1-x-x-1-1-1-1-x-x-1-1-1-1-x-x-1-1-1-1-x-x-----|
G-2-2-2-2-x-x-2-2-2-2-x-x-2-2-2-2-x-x-2-2-2-2-x-x-----|
D-----------------------------------------------------|
A-----------------------------------------------------|
E-----------------------------------------------------|

e-0-0-0-0-x-x-0-0-0-0-x-x-0-0-0-0-x-x-0-0-0-0-0-0-----|
B-1-1-1-1-x-x-1-1-1-1-x-x-1-1-1-1-x-x-1-1-1-1-1-1-----|
G-2-2-2-2-x-x-2-2-2-2-x-x-2-2-2-2-x-x-2-2-2-2-2-2-----|
D-----------------------------------------------------|
A-----------------------------------------------------|
E-----------------------------------------------------|

e-5-5-5-5-x-x-5-5-5-5-x-x-5-5-5-5-x-x-5-5-5-5-x-x-----|
B-6-6-6-6-x-x-6-6-6-6-x-x-6-6-6-6-x-x-6-6-6-6-x-x-----|
G-3-3-3-3-x-x-3-3-3-3-x-x-3-3-3-3-x-x-3-3-3-3-x-x-----|
D-----------------------------------------------------|
A-----------------------------------------------------|
E-----------------------------------------------------|

e-5-5-5-5-x-x-5-5-5-5-x-x-5-5-5-5-x-x-5-5-5-5-5-5-----|
B-6-6-6-6-x-x-6-6-6-6-x-x-6-6-6-6-x-x-6-6-6-6-6-6-----|
G-3-3-3-3-x-x-3-3-3-3-x-x-3-3-3-3-x-x-3-3-3-3-3-3-----|
D-----------------------------------------------------|
A-----------------------------------------------------|
E-----------------------------------------------------|

e-0-0-0-0-x-x-0-0-0-0-x-x-0-0-0-0-x-x-0-0-0-0-x-x-----|
B-1-1-1-1-x-x-1-1-1-1-x-x-1-1-1-1-x-x-1-1-1-1-x-x-----|
G-2-2-2-2-x-x-2-2-2-2-x-x-2-2-2-2-x-x-2-2-2-2-x-x-----|
D-----------------------------------------------------|
A-----------------------------------------------------|
E-----------------------------------------------------|

e-0-0-0-0-x-x-0-0-0-0-x-x-0-0-0-0-x-x-0-0-0-0-0-0-----|
B-1-1-1-1-x-x-1-1-1-1-x-x-1-1-1-1-x-x-1-1-1-1-1-1-----|
G-2-2-2-2-x-x-2-2-2-2-x-x-2-2-2-2-x-x-2-2-2-2-2-2-----|
D-----------------------------------------------------|
A-----------------------------------------------------|
E-----------------------------------------------------|

e-5-5-5-5-x-x-5-5-5-5-x-x-5-5-5-5-x-x-5-5-5-5-x-x-----|
B-6-6-6-6-x-x-6-6-6-6-x-x-6-6-6-6-x-x-6-6-6-6-x-x-----|
G-3-3-3-3-x-x-3-3-3-3-x-x-3-3-3-3-x-x-3-3-3-3-x-x-----|
D-----------------------------------------------------|
A-----------------------------------------------------|
E-----------------------------------------------------|

e-5-5-5-5-x-x-5-5-5-5-x-x-5-5-5-5-x-x-5-5-5-5-5-5-----|
B-6-6-6-6-x-x-6-6-6-6-x-x-6-6-6-6-x-x-6-6-6-6-6-6-----|
G-3-3-3-3-x-x-3-3-3-3-x-x-3-3-3-3-x-x-3-3-3-3-3-3-----|
D-----------------------------------------------------|
A-----------------------------------------------------|
E-----------------------------------------------------|

Bridge:

e------------------------------------|
B---------0----------------0---------|
G-----0-------0--------0-------0-----|
D---4---4---4---4----4---4---4---4---|
A------------------------------------|
E-0----------------0-----------------|

e-----------------------------------|
B---------0----------------0--------|
G-----0-------0--------0-------0----|
D---4---4---4---4----4---4---4---4--|
A-----------------------------------|
E-0----------------0----------------|

Bridge 2 / Chorus:

e------3-----------------3----------|
B---1----------------1--------------|
G-2---2------------2---2------------|
D-----------------------------------|
A-----------------------------------|
E-----------------------------------|

e----------------------------------|
B------0---------------------------|
G---0------------------------------|
D-2---2----------------------------|
A----------------------------------|
E----------------------------------|

e------3-----------------3----8\----|
B---1----------------1--------------|
G-2---2------------2---2------------|
D-----------------------------------|
A-----------------------------------|
E-----------------------------------|

e----------------------------------|
B------0---------------------------|
G---0------------------------------|
D-2---2----------------------------|
A----------------------------------|
E----------------------------------|

e------3-----------------3----------|
B---1----------------1--------------|
G-2---2------------2---2------------|
D-----------------------------------|
A-----------------------------------|
E-----------------------------------|

e----------------------------------|
B------0---------------------------|
G---0------------------------------|
D-2---2----------------------------|
A----------------------------------|
E----------------------------------|

e------3-----------------3----8\----|
B---1----------------1--------------|
G-2---2------------2---2------------|
D-----------------------------------|
A-----------------------------------|
E-----------------------------------|

e----------------------------------|
B------0---------------------------|
G---0------------------------------|
D-2---2----------------------------|
A----------------------------------|
E----------------------------------|

Played over chorus:

e----------------------------------|
B---3----------------3-------------|
G-----0----------------0-----------|
D-2----------------2---------------|
A----------------------------------|
E----------------------------------|

e----------------------------------|
B---0----------------0-------------|
G-----0----------------0-----------|
D-2----------------2---------------|
A----------------------------------|
E----------------------------------|

e----------------------------------|
B---3----------------3-------------|
G-----0----------------0-----------|
D-2----------------2---------------|
A----------------------------------|
E----------------------------------|

e----------------------------------|
B---0----------------0-------------|
G-----0----------------0-----------|
D-2----------------2---------------|
A----------------------------------|
E----------------------------------|

e----------------------------------|
B---3----------------3-------------|
G-----0----------------0-----------|
D-2----------------2---------------|
A----------------------------------|
E----------------------------------|

e-3-3-3-3-3-3-x-0-0-0-0-0-0-x-0-0-0-0-0-0-x-0-0-0-0-0-0-0-|
B-1-1-1-1-1-1-x-1-1-1-1-1-1-x-0-0-0-0-0-0-x-1-1-1-1-1-1-1-|
G-2-2-2-2-2-2-x-0-0-0-0-0-0-x-0-0-0-0-0-0-x-2-2-2-2-2-2-2-|
D-2-2-2-2-2-2-x-2-2-2-2-2-2-x-2-2-2-2-2-2-x-2-2-2-2-2-2-2-|
A-0-0-0-0-0-0-x-3-3-3-3-3-3-x-2-2-2-2-2-2-x-0-0-0-0-0-0-0-|
E-0-0-0-0-0-0-x-0-0-0-0-0-0-x-0-0-0-0-0-0-x-0-0-0-0-0-0-0-|

e-5-5-5-5-5-5-x-3-3-3-3-3-3-x-0-0-0-0-0-0-x-0-0-0-0-0-0-0-0-|
B-6-6-6-6-6-6-x-3-3-3-3-3-3-x-1-1-1-1-1-1-x-0-0-0-0-0-0-0-0-|
G-5-5-5-5-5-5-x-0-0-0-0-0-0-x-2-2-2-2-2-2-x-0-0-0-0-0-0-0-0-|
D-0-0-0-0-0-0-x-0-0-0-0-0-0-x-2-2-2-2-2-2-x-2-2-2-2-2-2-2-2-|
A-0-0-0-0-0-0-x-2-2-2-2-2-2-x-0-0-0-0-0-0-x-2-2-2-2-2-2-2-2-|
E-0-0-0-0-0-0-x-3-3-3-3-3-3-x-0-0-0-0-0-0-x-0-0-0-0-0-0-0-0-|

e-0-0-0-0-0-0-0-0-0-0-0-0-0-0-0-0-0-0-0-0-|
B-1-1-1-1-1-1-1-1-1-1-0-0-0-0-0-0-0-0-0-0-|
G-0-0-0-0-0-0-0-0-0-0-0-0-0-0-0-0-0-0-0-0-|
D-2-2-2-2-2-2-2-2-2-2-2-2-2-2-2-2-2-2-2-2-|
A-3-3-3-3-3-3-3-3-3-3-2-2-2-2-2-2-2-2-2-2-|
E-0-0-0-0-0-0-0-0-0-0-0-0-0-0-0-0-0-0-0-0-|

e-3-3-3-3-3-3-x-0-0-0-0-0-0-x-0-0-0-0-0-0-x-0-0-0-0-0-0-0-|
B-1-1-1-1-1-1-x-1-1-1-1-1-1-x-0-0-0-0-0-0-x-1-1-1-1-1-1-1-|
G-2-2-2-2-2-2-x-0-0-0-0-0-0-x-0-0-0-0-0-0-x-2-2-2-2-2-2-2-|
D-2-2-2-2-2-2-x-2-2-2-2-2-2-x-2-2-2-2-2-2-x-2-2-2-2-2-2-2-|
A-0-0-0-0-0-0-x-3-3-3-3-3-3-x-2-2-2-2-2-2-x-0-0-0-0-0-0-0-|
E-0-0-0-0-0-0-x-0-0-0-0-0-0-x-0-0-0-0-0-0-x-0-0-0-0-0-0-0-|

e-5-5-5-5-5-5-x-3-3-3-3-3-3-x-0-0-0-0-0-0-x-0-0-0-0-0-0-0-0-|
B-6-6-6-6-6-6-x-3-3-3-3-3-3-x-1-1-1-1-1-1-x-0-0-0-0-0-0-0-0-|
G-5-5-5-5-5-5-x-0-0-0-0-0-0-x-2-2-2-2-2-2-x-0-0-0-0-0-0-0-0-|
D-0-0-0-0-0-0-x-0-0-0-0-0-0-x-2-2-2-2-2-2-x-2-2-2-2-2-2-2-2-|
A-0-0-0-0-0-0-x-2-2-2-2-2-2-x-0-0-0-0-0-0-x-2-2-2-2-2-2-2-2-|
E-0-0-0-0-0-0-x-3-3-3-3-3-3-x-0-0-0-0-0-0-x-0-0-0-0-0-0-0-0-|

e-0-0-0-0-0-0-0-0-0-0-0-0-0-0-0-0-0-0-0-0-|
B-1-1-1-1-1-1-1-1-1-1-0-0-0-0-0-0-0-0-0-0-|
G-0-0-0-0-0-0-0-0-0-0-0-0-0-0-0-0-0-0-0-0-|
D-2-2-2-2-2-2-2-2-2-2-2-2-2-2-2-2-2-2-2-2-|
A-3-3-3-3-3-3-3-3-3-3-2-2-2-2-2-2-2-2-2-2-|
E-0-0-0-0-0-0-0-0-0-0-0-0-0-0-0-0-0-0-0-0-|

e-3-3-3-3-3-3-x-0-0-0-0-0-0-x-0-0-0-0-0-0-x-0-0-0-0-0-0-0-|
B-1-1-1-1-1-1-x-1-1-1-1-1-1-x-0-0-0-0-0-0-x-1-1-1-1-1-1-1-|
G-2-2-2-2-2-2-x-0-0-0-0-0-0-x-0-0-0-0-0-0-x-2-2-2-2-2-2-2-|
D-2-2-2-2-2-2-x-2-2-2-2-2-2-x-2-2-2-2-2-2-x-2-2-2-2-2-2-2-|
A-0-0-0-0-0-0-x-3-3-3-3-3-3-x-2-2-2-2-2-2-x-0-0-0-0-0-0-0-|
E-0-0-0-0-0-0-x-0-0-0-0-0-0-x-0-0-0-0-0-0-x-0-0-0-0-0-0-0-|

e-5-5-5-5-5-5-x-3-3-3-3-3-3-x-0-0-0-0-0-0-x-0-0-0-0-0-0-0-0-|
B-6-6-6-6-6-6-x-3-3-3-3-3-3-x-1-1-1-1-1-1-x-0-0-0-0-0-0-0-0-|
G-5-5-5-5-5-5-x-0-0-0-0-0-0-x-2-2-2-2-2-2-x-0-0-0-0-0-0-0-0-|
D-0-0-0-0-0-0-x-0-0-0-0-0-0-x-2-2-2-2-2-2-x-2-2-2-2-2-2-2-2-|
A-0-0-0-0-0-0-x-2-2-2-2-2-2-x-0-0-0-0-0-0-x-2-2-2-2-2-2-2-2-|
E-0-0-0-0-0-0-x-3-3-3-3-3-3-x-0-0-0-0-0-0-x-0-0-0-0-0-0-0-0-|

Next comes an acoustic part, which I donít know, and then the rest is pretty much that 
as the beginning of the song, so there you have it.
Tap to rate this tab
 
# A B C D E F G H I J K L M N O P Q R S T U V W X Y Z