Song name
# A B C D E F G H I J K L M N O P Q R S T U V W X Y Z

Porcupine Tree - Feel So Low chords

Highlighted       Show chord diagrams
Standard Tuning: EADGBe


Chords Used:

	E   C#m	   A

  e|----0----4-----0------|
  B|----0----5-----2------|
  G|----1----6-----2------|
  D|----2----6-----2------|
  A|----2----4-----0------|
  E|----0----4-----0------|


Intro/Verses

  E				    A

e|------0--0--0---|------0--0--0---|------0--0--0---|------0--0--0------|
B|----0--0--0--0--|----0--0--0--0--|----0--0--0--0--|----0--0--0--0-----|
G|----------------|----------------|----------------|-------------------|
D|----------------|----------------|----------------|-------------------|
A|--7-------------|--7-------------|--0-------------|--0----------------|
E|----------------|----------------|----------------|-------------------|

 Chorus
 
  E		    C#m		        A

e|------0--0--0---|-------------------|------0--0--0-----|------0--0--0----|
B|----0--0--0--0--|-------------------|-----0--0--0--0---|----0--0--0--0---|
G|----------------|------6---6---6----|------------------|-----------------|
D|----------------|----6---6---6---6--|------------------|-----------------|
A|--7-------------|--4----------------|---0--------------|--0--------------|
E|----------------|-------------------|------------------|-----------------|




Intro: E A (2x)

		       E 	
So see how long I can last
	         A		    E		A
You can pretend that I don't exist for you
    E			 A
And I can laugh about it now
    E
But I hated every minute
		       A		E
I was waiting for your email
		      A
And each day that you forgot to call...


	     E       C#m      A
Just made me feel so low, So low (x2)

 E	    A		E
Christmas 1998

I tried to call
	A		E
I just couldn't wait
			    A
And your message was out of date
      E
So I left my voice on your machine
	A	   E
But you did not respond
   A 
OK OK OK you've won...

	    E       C#m	     A
You make me feel so low, So low (x4) Then Fades...
Tap to rate this tab
 
# A B C D E F G H I J K L M N O P Q R S T U V W X Y Z