Song name
# A B C D E F G H I J K L M N O P Q R S T U V W X Y Z

Porcupine Tree - Half-light tab

Interpret: Porcupine Tree    		     Tabbed by Summer68

Title: Half-light Solo from the Live Album Anesthetize

Tuning: EADGBe or Drop D

h = hammer-on
b = bend
r = release
/ = slide up
\ = slide down
~ = vibrato

Solo (4:27)

|-----------------8-8----8-8-7----------------------------------|
|-----------8-8----------------8-7------------------------------|
|---------9------------------------10-9---------7-9-7----10~~---|
|---10----------------------------------10---10-------10--------|
|---------------------------------------------------------------|
|---------------------------------------------------------------|

|----------------------------------------------10--10/12-10-8-8-|
|-------------------------------------------10------------------|
|-7-9/12-12-12-12~~12-12-12-11--------11-12---------------------|
|------------------------------12--12---------------------------|
|---------------------------------------------------------------|
|---------------------------------------------------------------|

|8r7h8--8r7h8--8\7----------------------------------------------|
|------------------8-8---8-7-8\7--------------------------------|
|--------------------------------7------------------7-9/12-11-12|
|----------------------------------7-5-7/10-9-10-10-------------|
|---------------------------------------------------------------|
|---------------------------------------------------------------|

|----------------------10-12/17-15-14---------------------------|
|-10----------10-12-10----------------15~~15--------15-------15-|
|----12-11-12---------------------------------11-12----11-12----|
|---------------------------------------------------------------|
|---------------------------------------------------------------|
|---------------------------------------------------------------|

|---------------------------------------------------------------|
|-------15-------15-------15-------15-------15-------15/17-15-13|
|-11-12----11-12----11-12----11-12----11-12----11-12------------|
|---------------------------------------------------------------|
|---------------------------------------------------------------|
|---------------------------------------------------------------|

|---------------------------------------------------------------|
|-13-12---------------------------------------------------------|
|-------12---------------9/12-12-12-12~-12-12-12-11-------------|
|----------12-11-9-11-12----------------------------12-12-12-12-|
|---------------------------------------------------------------|
|---------------------------------------------------------------|

|---------17-15-14----------------------------------------------|
|---15-17----------15-17----------------------------------------|
|14-------------------------------------------------------------|
|---------------------------------------------------------------|
|---------------------------------------------------------------|
|---------------------------------------------------------------|
Tap to rate this tab
 
# A B C D E F G H I J K L M N O P Q R S T U V W X Y Z