Porcupine Tree - Baby Dream In Cellophane tab

-----------------------------------------------------
     Baby Dream In Cellophane - Porcupine Tree
-----------------------------------------------------

Tabbed by: Chen Sternberg (Israel)
Email: chensternberg@gmail.com

Tuning: Standard

====================================================================================
1) The Acoustic guitar in the song is accompanied with electric guitar effects.
   The Verse and Pre-Chorus somewhat combine the two guitars to match the song feel.

2) I Tabbed the 1st cycle of the song,
   the arrangement changes slightly afterwards, but the tabs are the same.
   If you know the song you'll know how to adjust :)
====================================================================================


Intro + Verse:
==============

e||--0----0--0-0----0--0-0----0--0-0----0--0-0--------|
B||--3----3--3-3----3--3-3----3--3-3----3--3-3--------|
G||--2----2--2-2h3--3--3-3/5--5--5-5\2--2--2-2--------|
D||--0----0--0-0----0--0-0----0--0-0----0--0-0--------|
A||---------------------------------------------------|
E|| --------------------------------------------------|

e|--0----0--0-0----0--0-0----0--0-0-0-0-0-0-0-0-0-0--||
B|--3----3--3-3----3--3-3----3--3-3-3-3-3-3-3-3-3-3--||
G|--0h2--2--2-2h3--3--3-3/5--5--0-0-2-3-2-3-2-3-2-3--||    X 4 (Repeat all verse)
D|--0----0--0-0----0--0-0----0--0-0-0-0-0-0-0-0-0-0--||
A|---------------------------------------------------||
E|---------------------------------------------------||



Pre-Chorus:
===========

e|--0----0--0-0----0--0-0----0--0-0----0-0----|
B|--3----3--3-3----3--3-3/5--5--5-5/7--7-7----|
G|--2----2--2-2h4--4--4-4/6--6--6-6/7--7-7----|
D|--0----0--0-0----0--0-0----0--0-0----0-0----|
A|--------------------------------------------|
E|--------------------------------------------|

e|--0----0--0-0h2--2--2-2h3--3--3-3/5--5-5----|
B|--0----0--0-0----0--0-0----0--0-0----0-0----|
G|--0----0--0-0----0--0-0----0--0-0----0-0----|
D|--2----2--2-2----2--2-2p0--0--0-0----0-0----|
A|--------------------------------------------|
E|--------------------------------------------|

e|--5----5--5-5h7--7--7-7h9--9--9-9h10-10-10--|
B|--7----7--7-7----7--7-7----7--7-7----7--7---|
G|--7----7--7-7----7--7-7----7--7-7----7--7---|
D|--0----0--0-0----0--0-0----0--0-0----0--0---|
A|--------------------------------------------|
E|--------------------------------------------|



Chorus:
=======

e||--2-2-2-0-0-----0-0-0-0-0-----1-1-1-1-1-----3-3-3-3-3-----||
B||--3-3-3-3-3-----1-1-1-1-1-----1-1-1-1-1-----3-3-3-3-3-----||
G||--2-2-2-2-2-----2-2-2-0-0-----0-0-0-0-0-----0-0-0-0-0-----||    X 2
D||--0-0-0-0-0-----2-2-2-2-2-----x-x-x-x-x-----2-2-2-2-2-----||
A||------------------------------1-1-1-1-1-----3-3-3-3-3-----||
E||----------------------------------------------------------||



Break:
======

e|--2-2-2-3-3-1-1-~--------|
B|--3-3-3-0-0-1-1-~--------|
G|--2-2-2-0-0-0-0-~--------|   X 3
D|--0-0-0-0-0-x-x-~--------|
A|--------x-x-1-1-~--------|
E|--------3-3--------------|




************************************

| /   slide up
| \   slide down
| h   hammer-on
| p   pull-off
| ~   vibrato
| x   Mute note

************************************
Tap to rate this tab
 
# A B C D E F G H I J K L M N O P Q R S T U V W X Y Z