Song name
# A B C D E F G H I J K L M N O P Q R S T U V W X Y Z

Porcupine Tree - Where We Would Be tab

Porcupine Tree
Where Would We Be
From  - Lightbulb Sun

Solo
02:23                             h         h            s
[-----s-------------|--16-16-16-16-19--16-16-19-14--|--14\16---s------16---]
[---7-\-17--16--19--|-------------------------------|--------17\16-17------]
[-9-----------------|-------------------------------|----------------------]
[-------------------|-------------------------------|----------------------]
[-------------------|-------------------------------|----------------------]
[-------------------|-------------------------------|----------------------]
                                                                 Pick
        h  p  p  s  h                                             Tap
[--16-16-19-16-14\11-12--|----b-r-b-r--------|----p------p--s--------------]
[------------------------|--16-----------14--|--17-14--19-14\12---(19)-12--]
[------------------------|-------------------|-----------------------------]
[------------------------|-------------------|-----------------------------]
[------------------------|-------------------|-----------------------------]
[------------------------|-------------------|-----------------------------]

         
[-----------------------------------------------|-s----s----s-----]
[-----s-----s----s----s----s----s----s----s-----|-\-17-\-16-\-19--]
[--16-\--9--\-13-\-11-\-14-\-13-\-16-\-14-\-16--|-----------------]
[-----------------------------------------------|-----------------]
[-----------------------------------------------|-----------------]
[-----------------------------------------------|-----------------]
 
   s       h            h         s             p      s
[--\-16--19-22-16-17--17-19-17-19-\--16-14-|--19-14-19-\-]
[------------------------------------------|-------------]
[------------------------------------------|-------------]
[------------------------------------------|-------------]
[------------------------------------------|-------------]
[------------------------------------------|-------------]


[--s---------b---b-r-b-r-b-r-----------------------------------------------]
[--\-16-16-16--16------------16-------s------------------------------------]
[-------------------------------18----\----11\13\11--h---------------------]
[-----------------------------------------------------13-------------------]
[--------------------------------------------------------------------------]
[--------------------------------------------------------------------------]

This is kind of a hard solo to do, tricky 1
Tap to rate this tab
 
# A B C D E F G H I J K L M N O P Q R S T U V W X Y Z