Song name
# A B C D E F G H I J K L M N O P Q R S T U V W X Y Z

Porcupine Tree - Octane Twisted tab

"Octane Twisted"

 DADGBE (from low to high)

 ^: Bending
 /: Slide up
 \: Slide down
 ~: Vibrato (sustained note)
 h: Hammer on
 p: Pull off

 
 VERSE (1:00)

 Let each chord ring
 E|-----------------------|
 B|-3---3---1-------------|
 G|-2---0---0---5---5---3-|
 D|-0---1---1---3---3---3-|
 A|-------------5---4---4-|
 D|-----------------------|

 BRIDGE

 E|------------------|
 B|------------------|
 G|-7-7-7-7-7-11\6-6-|  x2
 D|------------------|
 A|-5-5-5-5-5--9\4-4-|
 D|------------------|

 E|----------------------------|
 B|----------------------------|
 G|----------------------------|
 D|-1p0-1p0-1p0-0--7-7-6-6-9-9-|  x2
 A|-1p0-1p0-1p0-0--7-7-6-6-9-9-|
 D|-1p0-1p0-1p0-0--7-7-6-6-9-9-|

 Note the different fingering (same pattern used on "The Blind House", "The Seance")

 Gtr. 1
 E|----------------------------------------------------|
 B|----------------------------------------------------|
 G|-7-7-x-7-7-x-7-7-x-7-7--7-7-x-7-5-x-5-5-x-5-5-x-5-5-|
 D|-7-7-x-7-7-x-7-7-x-7-7--5-5-x-5-5-x-5-5-x-5-5-x-5-5-|
 A|-5-5-x-5-5-x-5-5-x-5-5--6-6-x-6-6-x-6-6-x-6-6-x-6-6-|
 D|----------------------------------------------------|

 E|------------------------------------------------------|
 B|------------------------------------------------------|
 G|-5-5-x-5-5-x-3-3-x-3-3--5-5-x-5-5-x-5-3-x-3-3-x-3-3-3-|
 D|-3-3-x-3-3-x-5-3-x-3-3--3-3-x-3-3-x-3-3-x-3-3-x-3-3-3-|
 A|-5-5-x-5-5-x-5-5-x-5-5--4-4-x-4-4-x-4-4-x-4-4-x-4-4-4-|
 D|------------------------------------------------------|

Gtr. 2
 E|------------------------------------------------|
 B|-15~ -15h16p15--13~ -13h15p13--11~ -11h13p11----|
 G|-------------------------------------------13~ -|
 D|------------------------------------------------|
 A|------------------------------------------------|
 D|------------------------------------------------|

 OUTRO

 E|---------------------------------|
 B|---------------------------------|
 G|------12/17------12/15-----------|
 D|-13-12------16~ -------16--12----|
 A|------------------------------12-|
 D|---------------------------------|

 E|------------------| this is played just once (listen to the record)
 B|------------------|
 G|------------------|
 D|------------12h13-|
 A|-0-12h13h15-------|
 D|------------------|
Tap to rate this tab
 
# A B C D E F G H I J K L M N O P Q R S T U V W X Y Z