Porcupine Tree - Voyage 34 Phase I Live tab

Porcupine Tree
Voyage 34
Warszawa

This is the solo from the live performance of Voyage 34 in Warszawa. 
The ending is slightly different from the solo in the album. 
It has some influences of the solo in phase II of Voyage 34.

(E A D G B e)

h = hammer on           
s = slide
p = pull off            
~ = vibrato
b = bend up             
r = retract to          

[Chords before and after solo]

e:----0-----0-----------3----3-----2----------0----|
B:----0-----3-----------3------3-----3--------3----|
G:----9-----2-----------0--------0-----0------2----|
D:----9-----0-----------2-----------------(0)-0----|
A:----7-----0-----0-2-3-3---------------------0----|
E:--0-0--------------------------------------------|

[Solo]
e:------------------------------------------------10-10h12-10-10------|
B:----8p7-8p7-8p7-8p7--------7-8-10---8-10h12-------------------------|
G:---------------------9-9~-------------------------------------------|
D:--------------------------------------------------------------------|
A:--------------------------------------------------------------------|
E:--------------------------------------------------------------------|

e:----12h14-12-10-10---12--14-14b15r14--12--12---14-14b15r14--12--12--|
B:--------------------------------------------------------------------|
G:--------------------------------------------------------------------|
D:--------------------------------------------------------------------|
A:--------------------------------------------------------------------|
E:--------------------------------------------------------------------|

e:--12h14--12--10~~----17-14------------------------------------------|
B:---------------------------15s10-10-10--12-12b13r12--10--12b13r12---|
G:--------------------------------------------------------------------|
D:--------------------------------------------------------------------|
A:--------------------------------------------------------------------|
E:--------------------------------------------------------------------|

e:------------------------------------------17-15-14------------------|
B:---10-10h12-10h12-10h12--10-------------15----------15----15-17-17--|
G:-----------------------------12-11~~--14---------------14-----------|
D:--------------------------------------------------------------------|
A:--------------------------------------------------------------------|
E:--------------------------------------------------------------------|

e:--------------------------------------------------------------------|
B:--19b20r19-17-19-19b20r19-17-19---17-15-15~-s10h12p10-s7h8p7-s3h5p3~|
G:--------------------------------------------------------------------|
D:--------------------------------------------------------------------|
A:--------------------------------------------------------------------|
E:--------------------------------------------------------------------|

e:----------0h5h7-------0h7h10---------0h10h12-----|
B:----0h5h7-------0h7h8--------0h10h12-------------|
G:-------------------------------------------------| x5
D:-------------------------------------------------|
A:-------------------------------------------------|
E:-------------------------------------------------|

End 6th time with this
e:----------0h5h7-----------------|
B:----0h5h7-------7~~~------------|
G:--------------------------------|
D:--------------------------------|
A:--------------------------------|
E:--------------------------------|

e:------------|----------------------|
B:-7-8-10-12--|-14----14----14b15----|
G:------------|-14-12-14-12-14b15-12-|(x4)
D:------------|----------------------|
A:------------|----------------------|
E:------------|----------------------|

e:--------------------------------------|
B:--------------------------------------|
G:----14-12-12s9-9-11b12r11-9h11p9s7----|
D:--------------------------------------|
A:--------------------------------------|
E:--------------------------------------|

Tap to rate this tab
 
# A B C D E F G H I J K L M N O P Q R S T U V W X Y Z