Porcupine Tree - The Blind House tab

Porcupine Tree
"The Blind House"
The Incident 2009
Tabbed by Johnny Vines
vinesj13@students.rowan.edu
http://listn.to/thejohnnyvinesexperience


Intro (5/4 Time Signature unless otherwise noted)
e|-------|
B|-------|
G|-------|
D|-1--1--|
A|-1--1--|
D|-1--1--|

e|-------------------------------------------|
B|-------------------------------------------|
G|-7-7-7-7-7-7-10-10-10-10-6-6-6-6-6-6-------|
D|-------------------------------------1--1--| x4
A|-5-5-5-5-5-5-8--8--8--8--4-4-4-4-4-4-1--1--|
D|-0-----------------------------------1--1--|

e|-------------------------------------------|
B|-7-7-7-7-7-7-10-10-10-10-6-6-6-6-6-6-------|
G|-7-7-7-7-7-7-10-10-10-10-6-6-6-6-6-6-------|
D|-------------------------------------1--1--| x4
A|-5-5-5-5-5-5-8--8--8--8--4-4-4-4-4-4-1--1--|
D|-0-----------------------------------1--1--|

Verse 1: (clean)

e|-----------------------------------------|
B|-----------------------------------------|
G|-7--7--7-7-7--7--7-7-7--7--7-7-5--5--5-5-|
D|-7--7--7-7-7--7--7-7-5--5--5-5-5--5--5-5-|
A|-5--5--5-5-5--5--5-5-6--6--6-6-6--6--6-6-|
D|-----------------------------------------|
   "If you wanna Stay.....           Always  Here..."

e|------------------------------------------|
B|------------------------------------------|
G|-5--5--5-5-3--3--3-3-5--5--5-5-3--3--3-3--|
D|-3--3--3-3-3--3--3-3-3--3--3-3-3--3--3-3--|
A|-5--5--5-5-5--5--5-5-4--4--4-4-4--4--4-4--|
D|------------------------------------------|
      "All These Years.....       The Last Frontier..."

e|-----------------------------------------|
B|-----------------------------------------|
G|-7--7--7-7-7--7--7-7-7--7--7-7-5--5--5-5-|
D|-7--7--7-7-7--7--7-7-5--5--5-5-5--5--5-5-|
A|-5--5--5-5-5--5--5-5-6--6--6-6-6--6--6-6-|
D|-----------------------------------------|
   "It's no concern of theirs..... The World Outside..."

e|------------------------------------------|
B|------------------------------------------|
G|-5--5--5-5-3--3--3-3-5--5--5-5-3--3-------|
D|-3--3--3-3-3--3--3-3-3--3--3-3-3--3--1-1--|
A|-5--5--5-5-5--5--5-5-4--4--4-4-4--4--1-1--|
D|-------------------------------------1-1--|
      "Corrupts My Child.....       So trust these Eyes..."

e|-------------------------------------------|
B|-7-7-7-7-7-7-10-10-10-10-6-6-6-6-6-6-------|
G|-7-7-7-7-7-7-10-10-10-10-6-6-6-6-6-6-------|
D|-------------------------------------1--1--| x4 (excluded in Verse 2)
A|-5-5-5-5-5-5-8--8--8--8--4-4-4-4-4-4-1--1--|
D|-0-----------------------------------1--1--|

Verse 2: same as Verse 1 minus Last Line (Guitar is difficult to hear and buried in the 
under the synth strings, but is still playing the same thing)


Chorus: (4/4 time)


e| ----------------------------------------|
B|*----------------------------------------|
G| ----------------------------------------|
D| --7-7-7-7-7----3-3-3-3-3---1-3---3-3--3-| x2
A|*--5-5-5-5-5----1-1-1-1-1---1-1---1-1--1-|
D| --5-5-5-5-5----1-1-1-1-1---1-1---1-1--1-|
                         "Free Love"

e|-1---1---1-1-1-1--1-1--6---6---6-6-6-6--6-6--|
B|-3---3---3-3-3-3--3-3--8---8---8-8-8-8--8-8-*|
G|-2---2---2-2-2-2--2-2--7---7---7-7-7-7--7-7--|
D|-3---3---3-3-3-3--3-3--8---8---8-8-8-8--8-8--|
A|-1---1---1-1-1-1--1-1--6---6---6-6-6-6--6-6-*|
D|---------------------------------------------|
               “.....Bring love to all my sisters…”


Mini-Bridge:
e|-------6-----6--|
B|-10-10-6-----6--|
G|-8--8--8-----8--| 2X
D|-8--8--8-----8--|
A|-6--6--6-----6--|
D|----------------|

Verse 3 Same as Verse 2
Chorus
Mini-Bridge

Quiet Bridge: (approx. 4:07)
e|------------------------------------------------------|
B|------------------------------------------------------|
G|------------------------------------------------------|
D|-7---------3------------------------------------------| x8
A|-5---------1------------------------------------------|
D|-5---------1------------------------------------------|

Outro
e|-------|
B|-------|
G|-------|
D|-1--1--|
A|-1--1--|
D|-1--1--|

e|--------------------------------|
B|--------------------------------|
G|--------10-\(6)-6---------------|
D|-0------------------------1--1--| x2
A|-0------8--\(4)-4---------1--1--|
D|-0------------------------1--1--|

e|--------------------------------|
B|--------10-\(6)-6---------------|
G|--------10-\(6)-6---------------|
D|-0------------------------1--1--| x2
A|-0------8--\(4)-4---------1--1--|
D|-0------------------------1--1--|

e|-------------------------------------------|
B|-7-7-7-7-7-7-10-10-10-10-6-6-6-6-6-6-------|
G|-7-7-7-7-7-7-10-10-10-10-6-6-6-6-6-6-------|
D|-------------------------------------1--1--| x4
A|-5-5-5-5-5-5-8--8--8--8--4-4-4-4-4-4-1--1--|
D|-0-----------------------------------1--1--|
Tap to rate this tab
 
# A B C D E F G H I J K L M N O P Q R S T U V W X Y Z